ISO-10303-21;
HEADER;
FILE_DESCRIPTION (( 'STEP AP203' ),
    '1' );
FILE_NAME ('c60f.STEP',
    '2023-02-13T12:53:41',
    ( '' ),
    ( '' ),
    'SwSTEP 2.0',
    'SolidWorks 2019',
    '' );
FILE_SCHEMA (( 'CONFIG_CONTROL_DESIGN' ));
ENDSEC;

DATA;
#1 = ORIENTED_EDGE ( 'NONE', *, *, #118, .F. ) ;
#2 = ORIENTED_EDGE ( 'NONE', *, *, #81, .F. ) ;
#3 = ADVANCED_FACE ( 'NONE', ( #131 ), #50, .T. ) ;
#4 = CIRCLE ( 'NONE', #244, 7.000000000000000000 ) ;
#5 = SECURITY_CLASSIFICATION ( '', '', #70 ) ;
#6 = PERSON_AND_ORGANIZATION ( #78, #86 ) ;
#7 = APPROVAL_PERSON_ORGANIZATION ( #163, #199, #16 ) ;
#8 = ADVANCED_FACE ( 'NONE', ( #184, #27 ), #64, .T. ) ;
#9 = EDGE_CURVE ( 'NONE', #132, #134, #30, .T. ) ;
#10 = DIRECTION ( 'NONE',  ( 1.000000000000000000, 0.000000000000000000, 0.000000000000000000 ) ) ;
#11 = COORDINATED_UNIVERSAL_TIME_OFFSET ( 1, 0, .AHEAD. ) ;
#12 = DIRECTION ( 'NONE',  ( 0.000000000000000000, 0.000000000000000000, 1.000000000000000000 ) ) ;
#13 = CALENDAR_DATE ( 2023, 13, 2 ) ;
#14 = PLANE ( 'NONE',  #161 ) ;
#15 = VERTEX_POINT ( 'NONE', #29 ) ;
#16 = APPROVAL_ROLE ( '' ) ;
#17 = FACE_OUTER_BOUND ( 'NONE', #224, .T. ) ;
#18 = CARTESIAN_POINT ( 'NONE',  ( 4.099999999999999645, 5.021051876504147385E-16, 500.0000000000000000 ) ) ;
#19 = CIRCLE ( 'NONE', #192, 7.000000000000000000 ) ;
#20 = ORIENTED_EDGE ( 'NONE', *, *, #58, .F. ) ;
#21 = EDGE_CURVE ( 'NONE', #172, #130, #96, .T. ) ;
#22 = EDGE_LOOP ( 'NONE', ( #214, #115 ) ) ;
#23 = AXIS2_PLACEMENT_3D ( 'NONE', #139, #122, #206 ) ;
#24 = CYLINDRICAL_SURFACE ( 'NONE', #109, 4.099999999999999645 ) ;
#25 = AXIS2_PLACEMENT_3D ( 'NONE', #66, #119, #141 ) ;
#26 = EDGE_CURVE ( 'NONE', #130, #43, #252, .T. ) ;
#27 = FACE_OUTER_BOUND ( 'NONE', #22, .T. ) ;
#28 = EDGE_CURVE ( 'NONE', #15, #202, #4, .T. ) ;
#29 = CARTESIAN_POINT ( 'NONE',  ( -7.000000000000000000, 0.000000000000000000, 5.000000000000000000 ) ) ;
#30 = CIRCLE ( 'NONE', #23, 7.000000000000000000 ) ;
#31 = ADVANCED_FACE ( 'NONE', ( #193 ), #14, .F. ) ;
#32 = AXIS2_PLACEMENT_3D ( 'NONE', #234, #38, #52 ) ;
#33 = CC_DESIGN_SECURITY_CLASSIFICATION ( #5, ( #147 ) ) ;
#34 = PERSON_AND_ORGANIZATION ( #78, #86 ) ;
#35 = PERSON_AND_ORGANIZATION ( #78, #86 ) ;
#36 = CARTESIAN_POINT ( 'NONE',  ( -7.000000000000000000, 0.000000000000000000, 0.000000000000000000 ) ) ;
#37 = PERSON_AND_ORGANIZATION ( #78, #86 ) ;
#38 = DIRECTION ( 'NONE',  ( 0.000000000000000000, 0.000000000000000000, 1.000000000000000000 ) ) ;
#39 = CC_DESIGN_APPROVAL ( #117, ( #5 ) ) ;
#40 = DIRECTION ( 'NONE',  ( -0.000000000000000000, -0.000000000000000000, -1.000000000000000000 ) ) ;
#41 = CC_DESIGN_PERSON_AND_ORGANIZATION_ASSIGNMENT ( #108, #211, ( #5 ) ) ;
#42 = ORIENTED_EDGE ( 'NONE', *, *, #101, .T. ) ;
#43 = VERTEX_POINT ( 'NONE', #232 ) ;
#44 = SHAPE_DEFINITION_REPRESENTATION ( #98, #183 ) ;
#45 = DIRECTION ( 'NONE',  ( -0.000000000000000000, -0.000000000000000000, -1.000000000000000000 ) ) ;
#46 = PRODUCT_DEFINITION ( 'NEZNÁMÝ', '', #147, #164 ) ;
#47 = AXIS2_PLACEMENT_3D ( 'NONE', #190, #217, #92 ) ;
#48 = DIRECTION ( 'NONE',  ( 1.000000000000000000, 0.000000000000000000, -0.000000000000000000 ) ) ;
#49 =( LENGTH_UNIT ( ) NAMED_UNIT ( * ) SI_UNIT ( .MILLI., .METRE. ) );
#50 = PLANE ( 'NONE',  #231 ) ;
#51 = LINE ( 'NONE', #218, #166 ) ;
#52 = DIRECTION ( 'NONE',  ( 1.000000000000000000, 0.000000000000000000, 0.000000000000000000 ) ) ;
#53 = APPROVAL_STATUS ( 'not_yet_approved' ) ;
#54 = EDGE_LOOP ( 'NONE', ( #2, #253, #195, #95 ) ) ;
#55 = DATE_TIME_ROLE ( 'creation_date' ) ;
#56 = DIRECTION ( 'NONE',  ( 1.000000000000000000, 0.000000000000000000, 0.000000000000000000 ) ) ;
#57 = FACE_OUTER_BOUND ( 'NONE', #54, .T. ) ;
#58 = EDGE_CURVE ( 'NONE', #202, #15, #89, .T. ) ;
#59 = EDGE_LOOP ( 'NONE', ( #20, #93, #219, #114 ) ) ;
#60 = LOCAL_TIME ( 13, 53, 41.00000000000000000, #191 ) ;
#61 = CIRCLE ( 'NONE', #47, 4.099999999999999645 ) ;
#62 = PERSON_AND_ORGANIZATION_ROLE ( 'design_owner' ) ;
#63 = CC_DESIGN_DATE_AND_TIME_ASSIGNMENT ( #73, #55, ( #46 ) ) ;
#64 = PLANE ( 'NONE',  #213 ) ;
#65 = VECTOR ( 'NONE', #182, 1000.000000000000000 ) ;
#66 = CARTESIAN_POINT ( 'NONE',  ( 0.000000000000000000, 0.000000000000000000, 0.000000000000000000 ) ) ;
#67 = VECTOR ( 'NONE', #74, 1000.000000000000000 ) ;
#68 = PERSON_AND_ORGANIZATION_ROLE ( 'creator' ) ;
#69 = DIRECTION ( 'NONE',  ( -0.000000000000000000, -0.000000000000000000, -1.000000000000000000 ) ) ;
#70 = SECURITY_CLASSIFICATION_LEVEL ( 'unclassified' ) ;
#71 = CYLINDRICAL_SURFACE ( 'NONE', #97, 7.000000000000000000 ) ;
#72 = LINE ( 'NONE', #88, #254 ) ;
#73 = DATE_AND_TIME ( #196, #136 ) ;
#74 = DIRECTION ( 'NONE',  ( -0.000000000000000000, -0.000000000000000000, -1.000000000000000000 ) ) ;
#75 = PRODUCT_RELATED_PRODUCT_CATEGORY ( 'detail', '', ( #243 ) ) ;
#76 = CARTESIAN_POINT ( 'NONE',  ( 4.099999999999999645, 5.021051876504147385E-16, 5.000000000000000000 ) ) ;
#77 = ORIENTED_EDGE ( 'NONE', *, *, #21, .F. ) ;
#78 = PERSON ( 'NEURÈENÝ', 'NEURÈENÝ', 'NEURÈENÝ', ('NEURÈENÝ'), ('NEURÈENÝ'), ('NEURÈENÝ') ) ;
#79 = AXIS2_PLACEMENT_3D ( 'NONE', #227, #255, #222 ) ;
#80 = LOCAL_TIME ( 13, 53, 41.00000000000000000, #144 ) ;
#81 = EDGE_CURVE ( 'NONE', #172, #198, #51, .T. ) ;
#82 = CARTESIAN_POINT ( 'NONE',  ( 0.000000000000000000, 0.000000000000000000, 5.000000000000000000 ) ) ;
#83 =( NAMED_UNIT ( * ) SI_UNIT ( $, .STERADIAN. ) SOLID_ANGLE_UNIT ( ) );
#84 = CARTESIAN_POINT ( 'NONE',  ( 0.000000000000000000, 0.000000000000000000, 500.0000000000000000 ) ) ;
#85 = APPLICATION_PROTOCOL_DEFINITION ( 'international standard', 'config_control_design', 1994, #145 ) ;
#86 = ORGANIZATION ( 'NEURÈENÝ', 'NEURÈENÝ', '' ) ;
#87 = APPROVAL_ROLE ( '' ) ;
#88 = CARTESIAN_POINT ( 'NONE',  ( 7.000000000000000000, 8.572527594031473190E-16, 5.000000000000000000 ) ) ;
#89 = CIRCLE ( 'NONE', #205, 7.000000000000000000 ) ;
#90 = DATE_AND_TIME ( #247, #194 ) ;
#91 = DIRECTION ( 'NONE',  ( 0.000000000000000000, 0.000000000000000000, 1.000000000000000000 ) ) ;
#92 = DIRECTION ( 'NONE',  ( 1.000000000000000000, 0.000000000000000000, 0.000000000000000000 ) ) ;
#93 = ORIENTED_EDGE ( 'NONE', *, *, #113, .T. ) ;
#94 = DATE_AND_TIME ( #13, #60 ) ;
#95 = ORIENTED_EDGE ( 'NONE', *, *, #107, .T. ) ;
#96 = CIRCLE ( 'NONE', #124, 4.099999999999999645 ) ;
#97 = AXIS2_PLACEMENT_3D ( 'NONE', #148, #235, #212 ) ;
#98 = PRODUCT_DEFINITION_SHAPE ( 'NONE', 'NONE',  #46 ) ;
#99 = CARTESIAN_POINT ( 'NONE',  ( 0.000000000000000000, 0.000000000000000000, 500.0000000000000000 ) ) ;
#100 = ORIENTED_EDGE ( 'NONE', *, *, #118, .T. ) ;
#101 = EDGE_CURVE ( 'NONE', #198, #43, #203, .T. ) ;
#102 = CC_DESIGN_PERSON_AND_ORGANIZATION_ASSIGNMENT ( #37, #68, ( #46 ) ) ;
#103 = DATE_TIME_ROLE ( 'classification_date' ) ;
#104 = CIRCLE ( 'NONE', #32, 4.099999999999999645 ) ;
#105 = APPROVAL_PERSON_ORGANIZATION ( #34, #149, #87 ) ;
#106 = DIRECTION ( 'NONE',  ( 1.000000000000000000, 0.000000000000000000, 0.000000000000000000 ) ) ;
#107 = EDGE_CURVE ( 'NONE', #43, #198, #61, .T. ) ;
#108 = PERSON_AND_ORGANIZATION ( #78, #86 ) ;
#109 = AXIS2_PLACEMENT_3D ( 'NONE', #159, #45, #226 ) ;
#110 = ORIENTED_EDGE ( 'NONE', *, *, #81, .T. ) ;
#111 = COORDINATED_UNIVERSAL_TIME_OFFSET ( 1, 0, .AHEAD. ) ;
#112 = DIRECTION ( 'NONE',  ( 1.000000000000000000, 0.000000000000000000, -0.000000000000000000 ) ) ;
#113 = EDGE_CURVE ( 'NONE', #202, #132, #72, .T. ) ;
#114 = ORIENTED_EDGE ( 'NONE', *, *, #245, .F. ) ;
#115 = ORIENTED_EDGE ( 'NONE', *, *, #58, .T. ) ;
#116 = EDGE_LOOP ( 'NONE', ( #242, #175, #236, #100 ) ) ;
#117 = APPROVAL ( #186, 'NEURÈENÝ' ) ;
#118 = EDGE_CURVE ( 'NONE', #134, #132, #19, .T. ) ;
#119 = DIRECTION ( 'NONE',  ( 0.000000000000000000, 0.000000000000000000, 1.000000000000000000 ) ) ;
#120 = CARTESIAN_POINT ( 'NONE',  ( 0.000000000000000000, 0.000000000000000000, 500.0000000000000000 ) ) ;
#121 = DIRECTION ( 'NONE',  ( -1.000000000000000000, 0.000000000000000000, 0.000000000000000000 ) ) ;
#122 = DIRECTION ( 'NONE',  ( 0.000000000000000000, 0.000000000000000000, 1.000000000000000000 ) ) ;
#123 = PERSON_AND_ORGANIZATION ( #78, #86 ) ;
#124 = AXIS2_PLACEMENT_3D ( 'NONE', #84, #165, #106 ) ;
#125 = EDGE_CURVE ( 'NONE', #130, #172, #104, .T. ) ;
#126 = CARTESIAN_POINT ( 'NONE',  ( -4.099999999999999645, 0.000000000000000000, 500.0000000000000000 ) ) ;
#127 = APPROVAL_DATE_TIME ( #215, #149 ) ;
#128 = DIRECTION ( 'NONE',  ( 0.000000000000000000, 0.000000000000000000, 1.000000000000000000 ) ) ;
#129 =( GEOMETRIC_REPRESENTATION_CONTEXT ( 3 ) GLOBAL_UNCERTAINTY_ASSIGNED_CONTEXT ( ( #180 ) ) GLOBAL_UNIT_ASSIGNED_CONTEXT ( ( #49, #230, #83 ) ) REPRESENTATION_CONTEXT ( 'NONE', 'WORKASPACE' ) );
#130 = VERTEX_POINT ( 'NONE', #126 ) ;
#131 = FACE_OUTER_BOUND ( 'NONE', #241, .T. ) ;
#132 = VERTEX_POINT ( 'NONE', #197 ) ;
#133 = AXIS2_PLACEMENT_3D ( 'NONE', #188, #12, #10 ) ;
#134 = VERTEX_POINT ( 'NONE', #36 ) ;
#135 = FACE_OUTER_BOUND ( 'NONE', #116, .T. ) ;
#136 = LOCAL_TIME ( 13, 53, 41.00000000000000000, #111 ) ;
#137 = APPLICATION_PROTOCOL_DEFINITION ( 'international standard', 'config_control_design', 1994, #162 ) ;
#138 = DIRECTION ( 'NONE',  ( 1.000000000000000000, 0.000000000000000000, -0.000000000000000000 ) ) ;
#139 = CARTESIAN_POINT ( 'NONE',  ( 0.000000000000000000, 0.000000000000000000, 0.000000000000000000 ) ) ;
#140 = CARTESIAN_POINT ( 'NONE',  ( -7.000000000000000000, 0.000000000000000000, 5.000000000000000000 ) ) ;
#141 = DIRECTION ( 'NONE',  ( 1.000000000000000000, 0.000000000000000000, 0.000000000000000000 ) ) ;
#142 = PERSON_AND_ORGANIZATION_ROLE ( 'creator' ) ;
#143 = DIRECTION ( 'NONE',  ( 0.000000000000000000, 0.000000000000000000, 1.000000000000000000 ) ) ;
#144 = COORDINATED_UNIVERSAL_TIME_OFFSET ( 1, 0, .AHEAD. ) ;
#145 = APPLICATION_CONTEXT ( 'configuration controlled 3d designs of mechanical parts and assemblies' ) ;
#146 = CARTESIAN_POINT ( 'NONE',  ( 0.000000000000000000, 0.000000000000000000, 0.000000000000000000 ) ) ;
#147 = PRODUCT_DEFINITION_FORMATION_WITH_SPECIFIED_SOURCE ( 'LIBOVOLNÝ', '', #243, .NOT_KNOWN. ) ;
#148 = CARTESIAN_POINT ( 'NONE',  ( 0.000000000000000000, 0.000000000000000000, 5.000000000000000000 ) ) ;
#149 = APPROVAL ( #53, 'NEURÈENÝ' ) ;
#150 = APPROVAL_DATE_TIME ( #237, #199 ) ;
#151 = CARTESIAN_POINT ( 'NONE',  ( 0.000000000000000000, 0.000000000000000000, 5.000000000000000000 ) ) ;
#152 = ORIENTED_EDGE ( 'NONE', *, *, #9, .F. ) ;
#153 = APPROVAL_STATUS ( 'not_yet_approved' ) ;
#154 = CARTESIAN_POINT ( 'NONE',  ( 0.000000000000000000, 0.000000000000000000, 0.000000000000000000 ) ) ;
#155 = ORIENTED_EDGE ( 'NONE', *, *, #101, .F. ) ;
#156 = CARTESIAN_POINT ( 'NONE',  ( 7.000000000000000000, 8.572527594031473190E-16, 5.000000000000000000 ) ) ;
#157 = ADVANCED_FACE ( 'NONE', ( #250 ), #71, .T. ) ;
#158 = ORIENTED_EDGE ( 'NONE', *, *, #107, .F. ) ;
#159 = CARTESIAN_POINT ( 'NONE',  ( 0.000000000000000000, 0.000000000000000000, 500.0000000000000000 ) ) ;
#160 = LOCAL_TIME ( 13, 53, 41.00000000000000000, #173 ) ;
#161 = AXIS2_PLACEMENT_3D ( 'NONE', #154, #174, #112 ) ;
#162 = APPLICATION_CONTEXT ( 'configuration controlled 3d designs of mechanical parts and assemblies' ) ;
#163 = PERSON_AND_ORGANIZATION ( #78, #86 ) ;
#164 = DESIGN_CONTEXT ( 'detailed design', #162, 'design' ) ;
#165 = DIRECTION ( 'NONE',  ( 0.000000000000000000, 0.000000000000000000, 1.000000000000000000 ) ) ;
#166 = VECTOR ( 'NONE', #69, 1000.000000000000000 ) ;
#167 = MECHANICAL_CONTEXT ( 'NONE', #145, 'mechanical' ) ;
#168 = ADVANCED_FACE ( 'NONE', ( #17 ), #24, .T. ) ;
#169 = APPROVAL_ROLE ( '' ) ;
#170 = DIRECTION ( 'NONE',  ( 1.000000000000000000, 0.000000000000000000, 0.000000000000000000 ) ) ;
#171 = ADVANCED_FACE ( 'NONE', ( #135 ), #181, .T. ) ;
#172 = VERTEX_POINT ( 'NONE', #18 ) ;
#173 = COORDINATED_UNIVERSAL_TIME_OFFSET ( 1, 0, .AHEAD. ) ;
#174 = DIRECTION ( 'NONE',  ( 0.000000000000000000, 0.000000000000000000, 1.000000000000000000 ) ) ;
#175 = ORIENTED_EDGE ( 'NONE', *, *, #28, .F. ) ;
#176 = CC_DESIGN_APPROVAL ( #149, ( #147 ) ) ;
#177 = EDGE_LOOP ( 'NONE', ( #1, #152 ) ) ;
#178 = DIRECTION ( 'NONE',  ( -0.000000000000000000, -0.000000000000000000, -1.000000000000000000 ) ) ;
#179 = EDGE_LOOP ( 'NONE', ( #158, #155 ) ) ;
#180 = UNCERTAINTY_MEASURE_WITH_UNIT (LENGTH_MEASURE( 1.000000000000000082E-05 ), #49, 'distance_accuracy_value', 'NONE');
#181 = CYLINDRICAL_SURFACE ( 'NONE', #79, 7.000000000000000000 ) ;
#182 = DIRECTION ( 'NONE',  ( -0.000000000000000000, -0.000000000000000000, -1.000000000000000000 ) ) ;
#183 = ADVANCED_BREP_SHAPE_REPRESENTATION ( 'c60f', ( #240, #25 ), #129 ) ;
#184 = FACE_BOUND ( 'NONE', #179, .T. ) ;
#185 = CC_DESIGN_PERSON_AND_ORGANIZATION_ASSIGNMENT ( #123, #207, ( #147 ) ) ;
#186 = APPROVAL_STATUS ( 'not_yet_approved' ) ;
#187 = DIRECTION ( 'NONE',  ( 0.000000000000000000, 0.000000000000000000, 1.000000000000000000 ) ) ;
#188 = CARTESIAN_POINT ( 'NONE',  ( 0.000000000000000000, 0.000000000000000000, 5.000000000000000000 ) ) ;
#189 = PERSON_AND_ORGANIZATION ( #78, #86 ) ;
#190 = CARTESIAN_POINT ( 'NONE',  ( 0.000000000000000000, 0.000000000000000000, 5.000000000000000000 ) ) ;
#191 = COORDINATED_UNIVERSAL_TIME_OFFSET ( 1, 0, .AHEAD. ) ;
#192 = AXIS2_PLACEMENT_3D ( 'NONE', #146, #91, #56 ) ;
#193 = FACE_OUTER_BOUND ( 'NONE', #177, .T. ) ;
#194 = LOCAL_TIME ( 13, 53, 41.00000000000000000, #11 ) ;
#195 = ORIENTED_EDGE ( 'NONE', *, *, #26, .T. ) ;
#196 = CALENDAR_DATE ( 2023, 13, 2 ) ;
#197 = CARTESIAN_POINT ( 'NONE',  ( 7.000000000000000000, 8.572527594031473190E-16, 0.000000000000000000 ) ) ;
#198 = VERTEX_POINT ( 'NONE', #76 ) ;
#199 = APPROVAL ( #153, 'NEURÈENÝ' ) ;
#200 = ORIENTED_EDGE ( 'NONE', *, *, #21, .T. ) ;
#201 = CLOSED_SHELL ( 'NONE', ( #168, #157, #171, #8, #31, #238, #3 ) ) ;
#202 = VERTEX_POINT ( 'NONE', #156 ) ;
#203 = CIRCLE ( 'NONE', #133, 4.099999999999999645 ) ;
#204 = DIRECTION ( 'NONE',  ( 0.000000000000000000, 0.000000000000000000, 1.000000000000000000 ) ) ;
#205 = AXIS2_PLACEMENT_3D ( 'NONE', #239, #128, #209 ) ;
#206 = DIRECTION ( 'NONE',  ( 1.000000000000000000, 0.000000000000000000, 0.000000000000000000 ) ) ;
#207 = PERSON_AND_ORGANIZATION_ROLE ( 'design_supplier' ) ;
#208 = CALENDAR_DATE ( 2023, 13, 2 ) ;
#209 = DIRECTION ( 'NONE',  ( 1.000000000000000000, 0.000000000000000000, 0.000000000000000000 ) ) ;
#210 = CC_DESIGN_PERSON_AND_ORGANIZATION_ASSIGNMENT ( #6, #62, ( #243 ) ) ;
#211 = PERSON_AND_ORGANIZATION_ROLE ( 'classification_officer' ) ;
#212 = DIRECTION ( 'NONE',  ( -1.000000000000000000, 0.000000000000000000, 0.000000000000000000 ) ) ;
#213 = AXIS2_PLACEMENT_3D ( 'NONE', #82, #204, #138 ) ;
#214 = ORIENTED_EDGE ( 'NONE', *, *, #28, .T. ) ;
#215 = DATE_AND_TIME ( #233, #80 ) ;
#216 = AXIS2_PLACEMENT_3D ( 'NONE', #99, #178, #121 ) ;
#217 = DIRECTION ( 'NONE',  ( 0.000000000000000000, 0.000000000000000000, 1.000000000000000000 ) ) ;
#218 = CARTESIAN_POINT ( 'NONE',  ( 4.099999999999999645, 5.021051876504147385E-16, 500.0000000000000000 ) ) ;
#219 = ORIENTED_EDGE ( 'NONE', *, *, #9, .T. ) ;
#220 = CYLINDRICAL_SURFACE ( 'NONE', #216, 4.099999999999999645 ) ;
#221 = ORIENTED_EDGE ( 'NONE', *, *, #125, .T. ) ;
#222 = DIRECTION ( 'NONE',  ( -1.000000000000000000, 0.000000000000000000, 0.000000000000000000 ) ) ;
#223 = CC_DESIGN_APPROVAL ( #199, ( #46 ) ) ;
#224 = EDGE_LOOP ( 'NONE', ( #77, #110, #42, #251 ) ) ;
#225 = CC_DESIGN_DATE_AND_TIME_ASSIGNMENT ( #94, #103, ( #5 ) ) ;
#226 = DIRECTION ( 'NONE',  ( -1.000000000000000000, 0.000000000000000000, 0.000000000000000000 ) ) ;
#227 = CARTESIAN_POINT ( 'NONE',  ( 0.000000000000000000, 0.000000000000000000, 5.000000000000000000 ) ) ;
#228 = LINE ( 'NONE', #140, #65 ) ;
#229 = CC_DESIGN_PERSON_AND_ORGANIZATION_ASSIGNMENT ( #35, #142, ( #147 ) ) ;
#230 =( NAMED_UNIT ( * ) PLANE_ANGLE_UNIT ( ) SI_UNIT ( $, .RADIAN. ) );
#231 = AXIS2_PLACEMENT_3D ( 'NONE', #120, #187, #48 ) ;
#232 = CARTESIAN_POINT ( 'NONE',  ( -4.099999999999999645, 0.000000000000000000, 5.000000000000000000 ) ) ;
#233 = CALENDAR_DATE ( 2023, 13, 2 ) ;
#234 = CARTESIAN_POINT ( 'NONE',  ( 0.000000000000000000, 0.000000000000000000, 500.0000000000000000 ) ) ;
#235 = DIRECTION ( 'NONE',  ( -0.000000000000000000, -0.000000000000000000, -1.000000000000000000 ) ) ;
#236 = ORIENTED_EDGE ( 'NONE', *, *, #245, .T. ) ;
#237 = DATE_AND_TIME ( #208, #160 ) ;
#238 = ADVANCED_FACE ( 'NONE', ( #57 ), #220, .T. ) ;
#239 = CARTESIAN_POINT ( 'NONE',  ( 0.000000000000000000, 0.000000000000000000, 5.000000000000000000 ) ) ;
#240 = MANIFOLD_SOLID_BREP ( 'Pøidat vysunutím3', #201 ) ;
#241 = EDGE_LOOP ( 'NONE', ( #221, #200 ) ) ;
#242 = ORIENTED_EDGE ( 'NONE', *, *, #113, .F. ) ;
#243 = PRODUCT ( 'c60f', 'c60f', '', ( #167 ) ) ;
#244 = AXIS2_PLACEMENT_3D ( 'NONE', #151, #143, #170 ) ;
#245 = EDGE_CURVE ( 'NONE', #15, #134, #228, .T. ) ;
#246 = APPROVAL_PERSON_ORGANIZATION ( #189, #117, #169 ) ;
#247 = CALENDAR_DATE ( 2023, 13, 2 ) ;
#248 = CARTESIAN_POINT ( 'NONE',  ( -4.099999999999999645, 0.000000000000000000, 500.0000000000000000 ) ) ;
#249 = APPROVAL_DATE_TIME ( #90, #117 ) ;
#250 = FACE_OUTER_BOUND ( 'NONE', #59, .T. ) ;
#251 = ORIENTED_EDGE ( 'NONE', *, *, #26, .F. ) ;
#252 = LINE ( 'NONE', #248, #67 ) ;
#253 = ORIENTED_EDGE ( 'NONE', *, *, #125, .F. ) ;
#254 = VECTOR ( 'NONE', #40, 1000.000000000000000 ) ;
#255 = DIRECTION ( 'NONE',  ( -0.000000000000000000, -0.000000000000000000, -1.000000000000000000 ) ) ;
ENDSEC;
END-ISO-10303-21;
