ISO-10303-21;
HEADER;
FILE_DESCRIPTION (( 'STEP AP203' ),
    '1' );
FILE_NAME ('4032.STEP',
    '2023-02-13T15:35:36',
    ( '' ),
    ( '' ),
    'SwSTEP 2.0',
    'SolidWorks 2019',
    '' );
FILE_SCHEMA (( 'CONFIG_CONTROL_DESIGN' ));
ENDSEC;

DATA;
#1 = CARTESIAN_POINT ( 'NONE',  ( 0.000000000000000000, 0.000000000000000000, 315.0000000000000000 ) ) ;
#2 = VERTEX_POINT ( 'NONE', #162 ) ;
#3 = DIRECTION ( 'NONE',  ( 1.000000000000000000, 0.000000000000000000, -0.000000000000000000 ) ) ;
#4 = DIRECTION ( 'NONE',  ( -0.000000000000000000, -0.000000000000000000, -1.000000000000000000 ) ) ;
#5 = FACE_OUTER_BOUND ( 'NONE', #220, .T. ) ;
#6 = ORIENTED_EDGE ( 'NONE', *, *, #60, .F. ) ;
#7 = CARTESIAN_POINT ( 'NONE',  ( -3.000000000000000444, 0.000000000000000000, 0.000000000000000000 ) ) ;
#8 = AXIS2_PLACEMENT_3D ( 'NONE', #163, #155, #21 ) ;
#9 = CARTESIAN_POINT ( 'NONE',  ( 0.000000000000000000, 0.000000000000000000, 0.000000000000000000 ) ) ;
#10 = MANIFOLD_SOLID_BREP ( 'Pøidat vysunutím3', #146 ) ;
#11 = ADVANCED_FACE ( 'NONE', ( #72 ), #23, .T. ) ;
#12 = AXIS2_PLACEMENT_3D ( 'NONE', #9, #28, #103 ) ;
#13 = LINE ( 'NONE', #249, #16 ) ;
#14 = PERSON_AND_ORGANIZATION_ROLE ( 'classification_officer' ) ;
#15 = CALENDAR_DATE ( 2023, 13, 2 ) ;
#16 = VECTOR ( 'NONE', #144, 1000.000000000000000 ) ;
#17 = APPROVAL_PERSON_ORGANIZATION ( #33, #183, #112 ) ;
#18 = CC_DESIGN_PERSON_AND_ORGANIZATION_ASSIGNMENT ( #68, #109, ( #222 ) ) ;
#19 = DIRECTION ( 'NONE',  ( 0.000000000000000000, 0.000000000000000000, 1.000000000000000000 ) ) ;
#20 = ORIENTED_EDGE ( 'NONE', *, *, #202, .T. ) ;
#21 = DIRECTION ( 'NONE',  ( 1.000000000000000000, 0.000000000000000000, -0.000000000000000000 ) ) ;
#22 = CIRCLE ( 'NONE', #36, 3.000000000000000444 ) ;
#23 = CYLINDRICAL_SURFACE ( 'NONE', #96, 3.000000000000000444 ) ;
#24 = VERTEX_POINT ( 'NONE', #99 ) ;
#25 = DIRECTION ( 'NONE',  ( -1.000000000000000000, 0.000000000000000000, 0.000000000000000000 ) ) ;
#26 = CARTESIAN_POINT ( 'NONE',  ( 0.000000000000000000, 0.000000000000000000, 315.0000000000000000 ) ) ;
#27 = CARTESIAN_POINT ( 'NONE',  ( 0.000000000000000000, 0.000000000000000000, 0.000000000000000000 ) ) ;
#28 = DIRECTION ( 'NONE',  ( 0.000000000000000000, 0.000000000000000000, 1.000000000000000000 ) ) ;
#29 = DIRECTION ( 'NONE',  ( 0.000000000000000000, 0.000000000000000000, 1.000000000000000000 ) ) ;
#30 = AXIS2_PLACEMENT_3D ( 'NONE', #168, #45, #147 ) ;
#31 = CARTESIAN_POINT ( 'NONE',  ( 0.000000000000000000, 0.000000000000000000, 315.0000000000000000 ) ) ;
#32 = DATE_AND_TIME ( #128, #213 ) ;
#33 = PERSON_AND_ORGANIZATION ( #152, #53 ) ;
#34 = ADVANCED_FACE ( 'NONE', ( #179 ), #217, .T. ) ;
#35 = ORIENTED_EDGE ( 'NONE', *, *, #208, .F. ) ;
#36 = AXIS2_PLACEMENT_3D ( 'NONE', #200, #47, #84 ) ;
#37 = PRODUCT_DEFINITION_FORMATION_WITH_SPECIFIED_SOURCE ( 'LIBOVOLNÝ', '', #83, .NOT_KNOWN. ) ;
#38 = DIRECTION ( 'NONE',  ( 0.000000000000000000, 0.000000000000000000, 1.000000000000000000 ) ) ;
#39 = VERTEX_POINT ( 'NONE', #95 ) ;
#40 = ADVANCED_FACE ( 'NONE', ( #223 ), #101, .T. ) ;
#41 = DIRECTION ( 'NONE',  ( 1.000000000000000000, 0.000000000000000000, 0.000000000000000000 ) ) ;
#42 = ORIENTED_EDGE ( 'NONE', *, *, #180, .T. ) ;
#43 = CARTESIAN_POINT ( 'NONE',  ( 0.000000000000000000, 0.000000000000000000, 315.0000000000000000 ) ) ;
#44 = DIRECTION ( 'NONE',  ( 0.000000000000000000, 0.000000000000000000, 1.000000000000000000 ) ) ;
#45 = DIRECTION ( 'NONE',  ( -0.000000000000000000, -0.000000000000000000, -1.000000000000000000 ) ) ;
#46 = AXIS2_PLACEMENT_3D ( 'NONE', #1, #182, #3 ) ;
#47 = DIRECTION ( 'NONE',  ( 0.000000000000000000, 0.000000000000000000, 1.000000000000000000 ) ) ;
#48 = CIRCLE ( 'NONE', #191, 1.600000000000000089 ) ;
#49 = APPROVAL_ROLE ( '' ) ;
#50 = SHAPE_DEFINITION_REPRESENTATION ( #245, #139 ) ;
#51 = APPLICATION_PROTOCOL_DEFINITION ( 'international standard', 'config_control_design', 1994, #156 ) ;
#52 = COORDINATED_UNIVERSAL_TIME_OFFSET ( 1, 0, .AHEAD. ) ;
#53 = ORGANIZATION ( 'NEURÈENÝ', 'NEURÈENÝ', '' ) ;
#54 = DATE_AND_TIME ( #108, #159 ) ;
#55 = VERTEX_POINT ( 'NONE', #7 ) ;
#56 = DIRECTION ( 'NONE',  ( 0.000000000000000000, 0.000000000000000000, 1.000000000000000000 ) ) ;
#57 = VECTOR ( 'NONE', #122, 1000.000000000000000 ) ;
#58 = VERTEX_POINT ( 'NONE', #75 ) ;
#59 = ORIENTED_EDGE ( 'NONE', *, *, #197, .T. ) ;
#60 = EDGE_CURVE ( 'NONE', #39, #120, #76, .T. ) ;
#61 = ORIENTED_EDGE ( 'NONE', *, *, #160, .T. ) ;
#62 = APPROVAL ( #151, 'NEURÈENÝ' ) ;
#63 = CARTESIAN_POINT ( 'NONE',  ( -1.600000000000000089, 0.000000000000000000, 315.0000000000000000 ) ) ;
#64 = DIRECTION ( 'NONE',  ( 0.000000000000000000, 0.000000000000000000, 1.000000000000000000 ) ) ;
#65 =( LENGTH_UNIT ( ) NAMED_UNIT ( * ) SI_UNIT ( .MILLI., .METRE. ) );
#66 = FACE_OUTER_BOUND ( 'NONE', #136, .T. ) ;
#67 = FACE_OUTER_BOUND ( 'NONE', #116, .T. ) ;
#68 = PERSON_AND_ORGANIZATION ( #152, #53 ) ;
#69 = CC_DESIGN_DATE_AND_TIME_ASSIGNMENT ( #233, #171, ( #227 ) ) ;
#70 = AXIS2_PLACEMENT_3D ( 'NONE', #27, #29, #246 ) ;
#71 = ORIENTED_EDGE ( 'NONE', *, *, #240, .F. ) ;
#72 = FACE_OUTER_BOUND ( 'NONE', #199, .T. ) ;
#73 = EDGE_LOOP ( 'NONE', ( #143, #119 ) ) ;
#74 = CARTESIAN_POINT ( 'NONE',  ( 0.000000000000000000, 0.000000000000000000, 0.000000000000000000 ) ) ;
#75 = CARTESIAN_POINT ( 'NONE',  ( 3.000000000000000444, 3.673940397442060361E-16, 3.000000000000000000 ) ) ;
#76 = LINE ( 'NONE', #219, #89 ) ;
#77 = ADVANCED_FACE ( 'NONE', ( #5 ), #196, .F. ) ;
#78 = DIRECTION ( 'NONE',  ( -0.000000000000000000, -0.000000000000000000, -1.000000000000000000 ) ) ;
#79 = AXIS2_PLACEMENT_3D ( 'NONE', #26, #81, #125 ) ;
#80 = APPROVAL_PERSON_ORGANIZATION ( #172, #118, #193 ) ;
#81 = DIRECTION ( 'NONE',  ( 0.000000000000000000, 0.000000000000000000, 1.000000000000000000 ) ) ;
#82 = ADVANCED_FACE ( 'NONE', ( #161, #93 ), #175, .T. ) ;
#83 = PRODUCT ( '4032', '4032', '', ( #185 ) ) ;
#84 = DIRECTION ( 'NONE',  ( 1.000000000000000000, 0.000000000000000000, 0.000000000000000000 ) ) ;
#85 = CIRCLE ( 'NONE', #127, 3.000000000000000444 ) ;
#86 = CC_DESIGN_SECURITY_CLASSIFICATION ( #227, ( #37 ) ) ;
#87 = DATE_AND_TIME ( #174, #111 ) ;
#88 = APPLICATION_CONTEXT ( 'configuration controlled 3d designs of mechanical parts and assemblies' ) ;
#89 = VECTOR ( 'NONE', #78, 1000.000000000000000 ) ;
#90 = LOCAL_TIME ( 16, 35, 36.00000000000000000, #250 ) ;
#91 = EDGE_CURVE ( 'NONE', #2, #55, #85, .T. ) ;
#92 = ORIENTED_EDGE ( 'NONE', *, *, #91, .T. ) ;
#93 = FACE_OUTER_BOUND ( 'NONE', #203, .T. ) ;
#94 = ORIENTED_EDGE ( 'NONE', *, *, #60, .T. ) ;
#95 = CARTESIAN_POINT ( 'NONE',  ( 1.600000000000000089, 1.959434878635765230E-16, 315.0000000000000000 ) ) ;
#96 = AXIS2_PLACEMENT_3D ( 'NONE', #114, #4, #25 ) ;
#97 = EDGE_CURVE ( 'NONE', #24, #58, #157, .T. ) ;
#98 =( GEOMETRIC_REPRESENTATION_CONTEXT ( 3 ) GLOBAL_UNCERTAINTY_ASSIGNED_CONTEXT ( ( #132 ) ) GLOBAL_UNIT_ASSIGNED_CONTEXT ( ( #65, #187, #229 ) ) REPRESENTATION_CONTEXT ( 'NONE', 'WORKASPACE' ) );
#99 = CARTESIAN_POINT ( 'NONE',  ( -3.000000000000000444, 0.000000000000000000, 3.000000000000000000 ) ) ;
#100 = ORIENTED_EDGE ( 'NONE', *, *, #126, .F. ) ;
#101 = PLANE ( 'NONE',  #46 ) ;
#102 = LINE ( 'NONE', #165, #57 ) ;
#103 = DIRECTION ( 'NONE',  ( 1.000000000000000000, 0.000000000000000000, 0.000000000000000000 ) ) ;
#104 = PERSON_AND_ORGANIZATION ( #152, #53 ) ;
#105 = EDGE_CURVE ( 'NONE', #201, #120, #148, .T. ) ;
#106 = DIRECTION ( 'NONE',  ( 1.000000000000000000, 0.000000000000000000, 0.000000000000000000 ) ) ;
#107 = CC_DESIGN_PERSON_AND_ORGANIZATION_ASSIGNMENT ( #133, #14, ( #227 ) ) ;
#108 = CALENDAR_DATE ( 2023, 13, 2 ) ;
#109 = PERSON_AND_ORGANIZATION_ROLE ( 'creator' ) ;
#110 = APPROVAL_DATE_TIME ( #54, #118 ) ;
#111 = LOCAL_TIME ( 16, 35, 36.00000000000000000, #234 ) ;
#112 = APPROVAL_ROLE ( '' ) ;
#113 = VECTOR ( 'NONE', #166, 1000.000000000000000 ) ;
#114 = CARTESIAN_POINT ( 'NONE',  ( 0.000000000000000000, 0.000000000000000000, 3.000000000000000000 ) ) ;
#115 = CC_DESIGN_APPROVAL ( #183, ( #227 ) ) ;
#116 = EDGE_LOOP ( 'NONE', ( #71, #94, #59, #35 ) ) ;
#117 = ORIENTED_EDGE ( 'NONE', *, *, #188, .F. ) ;
#118 = APPROVAL ( #149, 'NEURÈENÝ' ) ;
#119 = ORIENTED_EDGE ( 'NONE', *, *, #197, .F. ) ;
#120 = VERTEX_POINT ( 'NONE', #137 ) ;
#121 = DIRECTION ( 'NONE',  ( -1.000000000000000000, 0.000000000000000000, 0.000000000000000000 ) ) ;
#122 = DIRECTION ( 'NONE',  ( -0.000000000000000000, -0.000000000000000000, -1.000000000000000000 ) ) ;
#123 = CC_DESIGN_APPROVAL ( #118, ( #37 ) ) ;
#124 = CYLINDRICAL_SURFACE ( 'NONE', #216, 1.600000000000000089 ) ;
#125 = DIRECTION ( 'NONE',  ( 1.000000000000000000, 0.000000000000000000, 0.000000000000000000 ) ) ;
#126 = EDGE_CURVE ( 'NONE', #58, #24, #22, .T. ) ;
#127 = AXIS2_PLACEMENT_3D ( 'NONE', #238, #56, #135 ) ;
#128 = CALENDAR_DATE ( 2023, 13, 2 ) ;
#129 = PERSON_AND_ORGANIZATION ( #152, #53 ) ;
#130 = AXIS2_PLACEMENT_3D ( 'NONE', #74, #19, #243 ) ;
#131 = LOCAL_TIME ( 16, 35, 36.00000000000000000, #52 ) ;
#132 = UNCERTAINTY_MEASURE_WITH_UNIT (LENGTH_MEASURE( 1.000000000000000082E-05 ), #65, 'distance_accuracy_value', 'NONE');
#133 = PERSON_AND_ORGANIZATION ( #152, #53 ) ;
#134 = PRODUCT_RELATED_PRODUCT_CATEGORY ( 'detail', '', ( #83 ) ) ;
#135 = DIRECTION ( 'NONE',  ( 1.000000000000000000, 0.000000000000000000, 0.000000000000000000 ) ) ;
#136 = EDGE_LOOP ( 'NONE', ( #100, #61, #92, #117 ) ) ;
#137 = CARTESIAN_POINT ( 'NONE',  ( 1.600000000000000089, 1.959434878635765230E-16, 3.000000000000000000 ) ) ;
#138 = ORIENTED_EDGE ( 'NONE', *, *, #105, .T. ) ;
#139 = ADVANCED_BREP_SHAPE_REPRESENTATION ( '4032', ( #10, #70 ), #98 ) ;
#140 = VERTEX_POINT ( 'NONE', #63 ) ;
#141 = ORIENTED_EDGE ( 'NONE', *, *, #240, .T. ) ;
#142 = AXIS2_PLACEMENT_3D ( 'NONE', #43, #176, #121 ) ;
#143 = ORIENTED_EDGE ( 'NONE', *, *, #105, .F. ) ;
#144 = DIRECTION ( 'NONE',  ( -0.000000000000000000, -0.000000000000000000, -1.000000000000000000 ) ) ;
#145 = APPLICATION_PROTOCOL_DEFINITION ( 'international standard', 'config_control_design', 1994, #88 ) ;
#146 = CLOSED_SHELL ( 'NONE', ( #252, #150, #11, #82, #77, #34, #40 ) ) ;
#147 = DIRECTION ( 'NONE',  ( -1.000000000000000000, 0.000000000000000000, 0.000000000000000000 ) ) ;
#148 = CIRCLE ( 'NONE', #221, 1.600000000000000089 ) ;
#149 = APPROVAL_STATUS ( 'not_yet_approved' ) ;
#150 = ADVANCED_FACE ( 'NONE', ( #66 ), #164, .T. ) ;
#151 = APPROVAL_STATUS ( 'not_yet_approved' ) ;
#152 = PERSON ( 'NEURÈENÝ', 'NEURÈENÝ', 'NEURÈENÝ', ('NEURÈENÝ'), ('NEURÈENÝ'), ('NEURÈENÝ') ) ;
#153 = DESIGN_CONTEXT ( 'detailed design', #156, 'design' ) ;
#154 = CC_DESIGN_PERSON_AND_ORGANIZATION_ASSIGNMENT ( #129, #173, ( #37 ) ) ;
#155 = DIRECTION ( 'NONE',  ( 0.000000000000000000, 0.000000000000000000, 1.000000000000000000 ) ) ;
#156 = APPLICATION_CONTEXT ( 'configuration controlled 3d designs of mechanical parts and assemblies' ) ;
#157 = CIRCLE ( 'NONE', #170, 3.000000000000000444 ) ;
#158 = CARTESIAN_POINT ( 'NONE',  ( 0.000000000000000000, 0.000000000000000000, 3.000000000000000000 ) ) ;
#159 = LOCAL_TIME ( 16, 35, 36.00000000000000000, #214 ) ;
#160 = EDGE_CURVE ( 'NONE', #58, #2, #102, .T. ) ;
#161 = FACE_BOUND ( 'NONE', #73, .T. ) ;
#162 = CARTESIAN_POINT ( 'NONE',  ( 3.000000000000000444, 3.673940397442060361E-16, 0.000000000000000000 ) ) ;
#163 = CARTESIAN_POINT ( 'NONE',  ( 0.000000000000000000, 0.000000000000000000, 3.000000000000000000 ) ) ;
#164 = CYLINDRICAL_SURFACE ( 'NONE', #30, 3.000000000000000444 ) ;
#165 = CARTESIAN_POINT ( 'NONE',  ( 3.000000000000000444, 3.673940397442060361E-16, 3.000000000000000000 ) ) ;
#166 = DIRECTION ( 'NONE',  ( -0.000000000000000000, -0.000000000000000000, -1.000000000000000000 ) ) ;
#167 = CC_DESIGN_DATE_AND_TIME_ASSIGNMENT ( #32, #251, ( #222 ) ) ;
#168 = CARTESIAN_POINT ( 'NONE',  ( 0.000000000000000000, 0.000000000000000000, 3.000000000000000000 ) ) ;
#169 = PERSON_AND_ORGANIZATION_ROLE ( 'design_supplier' ) ;
#170 = AXIS2_PLACEMENT_3D ( 'NONE', #198, #38, #41 ) ;
#171 = DATE_TIME_ROLE ( 'classification_date' ) ;
#172 = PERSON_AND_ORGANIZATION ( #152, #53 ) ;
#173 = PERSON_AND_ORGANIZATION_ROLE ( 'creator' ) ;
#174 = CALENDAR_DATE ( 2023, 13, 2 ) ;
#175 = PLANE ( 'NONE',  #8 ) ;
#176 = DIRECTION ( 'NONE',  ( -0.000000000000000000, -0.000000000000000000, -1.000000000000000000 ) ) ;
#177 = ORIENTED_EDGE ( 'NONE', *, *, #91, .F. ) ;
#178 = ORIENTED_EDGE ( 'NONE', *, *, #208, .T. ) ;
#179 = FACE_OUTER_BOUND ( 'NONE', #224, .T. ) ;
#180 = EDGE_CURVE ( 'NONE', #55, #2, #235, .T. ) ;
#181 = ORIENTED_EDGE ( 'NONE', *, *, #97, .F. ) ;
#182 = DIRECTION ( 'NONE',  ( 0.000000000000000000, 0.000000000000000000, 1.000000000000000000 ) ) ;
#183 = APPROVAL ( #190, 'NEURÈENÝ' ) ;
#184 = AXIS2_PLACEMENT_3D ( 'NONE', #31, #64, #106 ) ;
#185 = MECHANICAL_CONTEXT ( 'NONE', #88, 'mechanical' ) ;
#186 = PERSON_AND_ORGANIZATION_ROLE ( 'design_owner' ) ;
#187 =( NAMED_UNIT ( * ) PLANE_ANGLE_UNIT ( ) SI_UNIT ( $, .RADIAN. ) );
#188 = EDGE_CURVE ( 'NONE', #24, #55, #13, .T. ) ;
#189 = PERSON_AND_ORGANIZATION ( #152, #53 ) ;
#190 = APPROVAL_STATUS ( 'not_yet_approved' ) ;
#191 = AXIS2_PLACEMENT_3D ( 'NONE', #225, #44, #206 ) ;
#192 = ORIENTED_EDGE ( 'NONE', *, *, #97, .T. ) ;
#193 = APPROVAL_ROLE ( '' ) ;
#194 = CIRCLE ( 'NONE', #79, 1.600000000000000089 ) ;
#195 = CC_DESIGN_APPROVAL ( #62, ( #222 ) ) ;
#196 = PLANE ( 'NONE',  #130 ) ;
#197 = EDGE_CURVE ( 'NONE', #120, #201, #48, .T. ) ;
#198 = CARTESIAN_POINT ( 'NONE',  ( 0.000000000000000000, 0.000000000000000000, 3.000000000000000000 ) ) ;
#199 = EDGE_LOOP ( 'NONE', ( #218, #181, #242, #42 ) ) ;
#200 = CARTESIAN_POINT ( 'NONE',  ( 0.000000000000000000, 0.000000000000000000, 3.000000000000000000 ) ) ;
#201 = VERTEX_POINT ( 'NONE', #207 ) ;
#202 = EDGE_CURVE ( 'NONE', #140, #39, #194, .T. ) ;
#203 = EDGE_LOOP ( 'NONE', ( #192, #204 ) ) ;
#204 = ORIENTED_EDGE ( 'NONE', *, *, #126, .T. ) ;
#205 = CC_DESIGN_PERSON_AND_ORGANIZATION_ASSIGNMENT ( #189, #169, ( #37 ) ) ;
#206 = DIRECTION ( 'NONE',  ( 1.000000000000000000, 0.000000000000000000, 0.000000000000000000 ) ) ;
#207 = CARTESIAN_POINT ( 'NONE',  ( -1.600000000000000089, 0.000000000000000000, 3.000000000000000000 ) ) ;
#208 = EDGE_CURVE ( 'NONE', #140, #201, #228, .T. ) ;
#209 = DIRECTION ( 'NONE',  ( -1.000000000000000000, 0.000000000000000000, 0.000000000000000000 ) ) ;
#210 = CARTESIAN_POINT ( 'NONE',  ( -1.600000000000000089, 0.000000000000000000, 315.0000000000000000 ) ) ;
#211 = APPROVAL_DATE_TIME ( #87, #62 ) ;
#212 = APPROVAL_DATE_TIME ( #253, #183 ) ;
#213 = LOCAL_TIME ( 16, 35, 36.00000000000000000, #236 ) ;
#214 = COORDINATED_UNIVERSAL_TIME_OFFSET ( 1, 0, .AHEAD. ) ;
#215 = SECURITY_CLASSIFICATION_LEVEL ( 'unclassified' ) ;
#216 = AXIS2_PLACEMENT_3D ( 'NONE', #226, #247, #209 ) ;
#217 = CYLINDRICAL_SURFACE ( 'NONE', #142, 1.600000000000000089 ) ;
#218 = ORIENTED_EDGE ( 'NONE', *, *, #160, .F. ) ;
#219 = CARTESIAN_POINT ( 'NONE',  ( 1.600000000000000089, 1.959434878635765230E-16, 315.0000000000000000 ) ) ;
#220 = EDGE_LOOP ( 'NONE', ( #254, #177 ) ) ;
#221 = AXIS2_PLACEMENT_3D ( 'NONE', #158, #241, #239 ) ;
#222 = PRODUCT_DEFINITION ( 'NEZNÁMÝ', '', #37, #153 ) ;
#223 = FACE_OUTER_BOUND ( 'NONE', #237, .T. ) ;
#224 = EDGE_LOOP ( 'NONE', ( #6, #244, #178, #138 ) ) ;
#225 = CARTESIAN_POINT ( 'NONE',  ( 0.000000000000000000, 0.000000000000000000, 3.000000000000000000 ) ) ;
#226 = CARTESIAN_POINT ( 'NONE',  ( 0.000000000000000000, 0.000000000000000000, 315.0000000000000000 ) ) ;
#227 = SECURITY_CLASSIFICATION ( '', '', #215 ) ;
#228 = LINE ( 'NONE', #210, #113 ) ;
#229 =( NAMED_UNIT ( * ) SI_UNIT ( $, .STERADIAN. ) SOLID_ANGLE_UNIT ( ) );
#230 = PERSON_AND_ORGANIZATION ( #152, #53 ) ;
#231 = CIRCLE ( 'NONE', #184, 1.600000000000000089 ) ;
#232 = APPROVAL_PERSON_ORGANIZATION ( #230, #62, #49 ) ;
#233 = DATE_AND_TIME ( #255, #90 ) ;
#234 = COORDINATED_UNIVERSAL_TIME_OFFSET ( 1, 0, .AHEAD. ) ;
#235 = CIRCLE ( 'NONE', #12, 3.000000000000000444 ) ;
#236 = COORDINATED_UNIVERSAL_TIME_OFFSET ( 1, 0, .AHEAD. ) ;
#237 = EDGE_LOOP ( 'NONE', ( #20, #141 ) ) ;
#238 = CARTESIAN_POINT ( 'NONE',  ( 0.000000000000000000, 0.000000000000000000, 0.000000000000000000 ) ) ;
#239 = DIRECTION ( 'NONE',  ( 1.000000000000000000, 0.000000000000000000, 0.000000000000000000 ) ) ;
#240 = EDGE_CURVE ( 'NONE', #39, #140, #231, .T. ) ;
#241 = DIRECTION ( 'NONE',  ( 0.000000000000000000, 0.000000000000000000, 1.000000000000000000 ) ) ;
#242 = ORIENTED_EDGE ( 'NONE', *, *, #188, .T. ) ;
#243 = DIRECTION ( 'NONE',  ( 1.000000000000000000, 0.000000000000000000, -0.000000000000000000 ) ) ;
#244 = ORIENTED_EDGE ( 'NONE', *, *, #202, .F. ) ;
#245 = PRODUCT_DEFINITION_SHAPE ( 'NONE', 'NONE',  #222 ) ;
#246 = DIRECTION ( 'NONE',  ( 1.000000000000000000, 0.000000000000000000, 0.000000000000000000 ) ) ;
#247 = DIRECTION ( 'NONE',  ( -0.000000000000000000, -0.000000000000000000, -1.000000000000000000 ) ) ;
#248 = CC_DESIGN_PERSON_AND_ORGANIZATION_ASSIGNMENT ( #104, #186, ( #83 ) ) ;
#249 = CARTESIAN_POINT ( 'NONE',  ( -3.000000000000000444, 0.000000000000000000, 3.000000000000000000 ) ) ;
#250 = COORDINATED_UNIVERSAL_TIME_OFFSET ( 1, 0, .AHEAD. ) ;
#251 = DATE_TIME_ROLE ( 'creation_date' ) ;
#252 = ADVANCED_FACE ( 'NONE', ( #67 ), #124, .T. ) ;
#253 = DATE_AND_TIME ( #15, #131 ) ;
#254 = ORIENTED_EDGE ( 'NONE', *, *, #180, .F. ) ;
#255 = CALENDAR_DATE ( 2023, 13, 2 ) ;
ENDSEC;
END-ISO-10303-21;
