ISO-10303-21;
HEADER;
FILE_DESCRIPTION (( 'STEP AP203' ),
    '1' );
FILE_NAME ('736a.STEP',
    '2023-01-31T14:47:51',
    ( '' ),
    ( '' ),
    'SwSTEP 2.0',
    'SolidWorks 2019',
    '' );
FILE_SCHEMA (( 'CONFIG_CONTROL_DESIGN' ));
ENDSEC;

DATA;
#1 = DIRECTION ( 'NONE',  ( -1.000000000000000000, 0.000000000000000000, 0.000000000000000000 ) ) ;
#2 = DIRECTION ( 'NONE',  ( -0.000000000000000000, -0.000000000000000000, -1.000000000000000000 ) ) ;
#3 = EDGE_CURVE ( 'NONE', #136, #47, #222, .T. ) ;
#4 = PRODUCT_DEFINITION_FORMATION_WITH_SPECIFIED_SOURCE ( 'LIBOVOLNÝ', '', #78, .NOT_KNOWN. ) ;
#5 = ORIENTED_EDGE ( 'NONE', *, *, #176, .F. ) ;
#6 = ORIENTED_EDGE ( 'NONE', *, *, #3, .F. ) ;
#7 = CC_DESIGN_PERSON_AND_ORGANIZATION_ASSIGNMENT ( #215, #33, ( #239 ) ) ;
#8 = FACE_OUTER_BOUND ( 'NONE', #43, .T. ) ;
#9 = DIRECTION ( 'NONE',  ( 0.000000000000000000, 0.000000000000000000, 1.000000000000000000 ) ) ;
#10 = VECTOR ( 'NONE', #98, 1000.000000000000000 ) ;
#11 = DIRECTION ( 'NONE',  ( 1.000000000000000000, 0.000000000000000000, -0.000000000000000000 ) ) ;
#12 = DIRECTION ( 'NONE',  ( -0.000000000000000000, -0.000000000000000000, -1.000000000000000000 ) ) ;
#13 = EDGE_CURVE ( 'NONE', #168, #76, #165, .T. ) ;
#14 = DATE_TIME_ROLE ( 'classification_date' ) ;
#15 = DIRECTION ( 'NONE',  ( 0.000000000000000000, 0.000000000000000000, 1.000000000000000000 ) ) ;
#16 = CIRCLE ( 'NONE', #206, 0.5000000000000000000 ) ;
#17 = UNCERTAINTY_MEASURE_WITH_UNIT (LENGTH_MEASURE( 1.000000000000000082E-05 ), #220, 'distance_accuracy_value', 'NONE');
#18 = PERSON_AND_ORGANIZATION ( #242, #255 ) ;
#19 = ADVANCED_FACE ( 'NONE', ( #28 ), #134, .T. ) ;
#20 = APPROVAL_ROLE ( '' ) ;
#21 = DIRECTION ( 'NONE',  ( -0.000000000000000000, -0.000000000000000000, -1.000000000000000000 ) ) ;
#22 = DIRECTION ( 'NONE',  ( 0.000000000000000000, 0.000000000000000000, 1.000000000000000000 ) ) ;
#23 = DIRECTION ( 'NONE',  ( 0.000000000000000000, 0.000000000000000000, 1.000000000000000000 ) ) ;
#24 = ORIENTED_EDGE ( 'NONE', *, *, #253, .T. ) ;
#25 = CIRCLE ( 'NONE', #56, 1.250000000000000000 ) ;
#26 = ORIENTED_EDGE ( 'NONE', *, *, #194, .T. ) ;
#27 = ORIENTED_EDGE ( 'NONE', *, *, #93, .T. ) ;
#28 = FACE_OUTER_BOUND ( 'NONE', #174, .T. ) ;
#29 = APPLICATION_PROTOCOL_DEFINITION ( 'international standard', 'config_control_design', 1994, #137 ) ;
#30 = AXIS2_PLACEMENT_3D ( 'NONE', #234, #23, #53 ) ;
#31 = ADVANCED_FACE ( 'NONE', ( #153 ), #228, .F. ) ;
#32 = CARTESIAN_POINT ( 'NONE',  ( 0.000000000000000000, 0.000000000000000000, 100.0000000000000000 ) ) ;
#33 = PERSON_AND_ORGANIZATION_ROLE ( 'classification_officer' ) ;
#34 = CARTESIAN_POINT ( 'NONE',  ( 0.5000000000000000000, 6.123233995736766036E-17, 100.0000000000000000 ) ) ;
#35 = APPROVAL_STATUS ( 'not_yet_approved' ) ;
#36 = CARTESIAN_POINT ( 'NONE',  ( 0.000000000000000000, 0.000000000000000000, 100.0000000000000000 ) ) ;
#37 = ADVANCED_FACE ( 'NONE', ( #63 ), #172, .T. ) ;
#38 = DATE_AND_TIME ( #96, #105 ) ;
#39 = DIRECTION ( 'NONE',  ( 1.000000000000000000, 0.000000000000000000, 0.000000000000000000 ) ) ;
#40 = CARTESIAN_POINT ( 'NONE',  ( -1.250000000000000000, 0.000000000000000000, 1.199999999999999956 ) ) ;
#41 = PRODUCT_DEFINITION_SHAPE ( 'NONE', 'NONE',  #224 ) ;
#42 = ADVANCED_FACE ( 'NONE', ( #150, #113 ), #197, .T. ) ;
#43 = EDGE_LOOP ( 'NONE', ( #246, #245, #26, #129 ) ) ;
#44 = EDGE_LOOP ( 'NONE', ( #177, #64, #127, #102 ) ) ;
#45 = VERTEX_POINT ( 'NONE', #34 ) ;
#46 = APPROVAL_ROLE ( '' ) ;
#47 = VERTEX_POINT ( 'NONE', #115 ) ;
#48 = PERSON_AND_ORGANIZATION ( #242, #255 ) ;
#49 = DIRECTION ( 'NONE',  ( 1.000000000000000000, 0.000000000000000000, -0.000000000000000000 ) ) ;
#50 = COORDINATED_UNIVERSAL_TIME_OFFSET ( 1, 0, .AHEAD. ) ;
#51 = DATE_TIME_ROLE ( 'creation_date' ) ;
#52 = CARTESIAN_POINT ( 'NONE',  ( 1.250000000000000000, 1.530808498934191571E-16, 0.000000000000000000 ) ) ;
#53 = DIRECTION ( 'NONE',  ( 1.000000000000000000, 0.000000000000000000, 0.000000000000000000 ) ) ;
#54 = DIRECTION ( 'NONE',  ( -1.000000000000000000, 0.000000000000000000, 0.000000000000000000 ) ) ;
#55 = AXIS2_PLACEMENT_3D ( 'NONE', #97, #179, #54 ) ;
#56 = AXIS2_PLACEMENT_3D ( 'NONE', #144, #162, #236 ) ;
#57 = APPLICATION_CONTEXT ( 'configuration controlled 3d designs of mechanical parts and assemblies' ) ;
#58 = ADVANCED_FACE ( 'NONE', ( #8 ), #143, .T. ) ;
#59 =( NAMED_UNIT ( * ) SI_UNIT ( $, .STERADIAN. ) SOLID_ANGLE_UNIT ( ) );
#60 = EDGE_LOOP ( 'NONE', ( #27, #80 ) ) ;
#61 = APPLICATION_PROTOCOL_DEFINITION ( 'international standard', 'config_control_design', 1994, #57 ) ;
#62 = CC_DESIGN_PERSON_AND_ORGANIZATION_ASSIGNMENT ( #227, #209, ( #78 ) ) ;
#63 = FACE_OUTER_BOUND ( 'NONE', #111, .T. ) ;
#64 = ORIENTED_EDGE ( 'NONE', *, *, #240, .T. ) ;
#65 = DIRECTION ( 'NONE',  ( 0.000000000000000000, 0.000000000000000000, 1.000000000000000000 ) ) ;
#66 = ORIENTED_EDGE ( 'NONE', *, *, #93, .F. ) ;
#67 = CARTESIAN_POINT ( 'NONE',  ( 0.000000000000000000, 0.000000000000000000, 1.199999999999999956 ) ) ;
#68 = CARTESIAN_POINT ( 'NONE',  ( 0.000000000000000000, 0.000000000000000000, 1.199999999999999956 ) ) ;
#69 = DIRECTION ( 'NONE',  ( -0.000000000000000000, -0.000000000000000000, -1.000000000000000000 ) ) ;
#70 = COORDINATED_UNIVERSAL_TIME_OFFSET ( 1, 0, .AHEAD. ) ;
#71 = DIRECTION ( 'NONE',  ( 0.000000000000000000, 0.000000000000000000, 1.000000000000000000 ) ) ;
#72 = CARTESIAN_POINT ( 'NONE',  ( -0.5000000000000000000, 0.000000000000000000, 100.0000000000000000 ) ) ;
#73 = CIRCLE ( 'NONE', #110, 1.250000000000000000 ) ;
#74 = DIRECTION ( 'NONE',  ( 0.000000000000000000, 0.000000000000000000, 1.000000000000000000 ) ) ;
#75 = AXIS2_PLACEMENT_3D ( 'NONE', #192, #211, #49 ) ;
#76 = VERTEX_POINT ( 'NONE', #238 ) ;
#77 = CC_DESIGN_SECURITY_CLASSIFICATION ( #239, ( #4 ) ) ;
#78 = PRODUCT ( '736a', '736a', '', ( #225 ) ) ;
#79 = ORIENTED_EDGE ( 'NONE', *, *, #214, .T. ) ;
#80 = ORIENTED_EDGE ( 'NONE', *, *, #13, .T. ) ;
#81 =( GEOMETRIC_REPRESENTATION_CONTEXT ( 3 ) GLOBAL_UNCERTAINTY_ASSIGNED_CONTEXT ( ( #17 ) ) GLOBAL_UNIT_ASSIGNED_CONTEXT ( ( #220, #138, #59 ) ) REPRESENTATION_CONTEXT ( 'NONE', 'WORKASPACE' ) );
#82 = DIRECTION ( 'NONE',  ( 1.000000000000000000, 0.000000000000000000, 0.000000000000000000 ) ) ;
#83 = DIRECTION ( 'NONE',  ( 1.000000000000000000, 0.000000000000000000, 0.000000000000000000 ) ) ;
#84 = VERTEX_POINT ( 'NONE', #52 ) ;
#85 = EDGE_LOOP ( 'NONE', ( #130, #223 ) ) ;
#86 = DIRECTION ( 'NONE',  ( 1.000000000000000000, 0.000000000000000000, 0.000000000000000000 ) ) ;
#87 = ORIENTED_EDGE ( 'NONE', *, *, #161, .T. ) ;
#88 = AXIS2_PLACEMENT_3D ( 'NONE', #190, #175, #82 ) ;
#89 = PERSON_AND_ORGANIZATION ( #242, #255 ) ;
#90 = AXIS2_PLACEMENT_3D ( 'NONE', #158, #22, #199 ) ;
#91 = CYLINDRICAL_SURFACE ( 'NONE', #131, 1.250000000000000000 ) ;
#92 = LOCAL_TIME ( 15, 47, 51.00000000000000000, #50 ) ;
#93 = EDGE_CURVE ( 'NONE', #76, #168, #147, .T. ) ;
#94 = PERSON_AND_ORGANIZATION_ROLE ( 'creator' ) ;
#95 = CARTESIAN_POINT ( 'NONE',  ( 0.5000000000000000000, 6.123233995736766036E-17, 1.199999999999999956 ) ) ;
#96 = CALENDAR_DATE ( 2023, 31, 1 ) ;
#97 = CARTESIAN_POINT ( 'NONE',  ( 0.000000000000000000, 0.000000000000000000, 100.0000000000000000 ) ) ;
#98 = DIRECTION ( 'NONE',  ( -0.000000000000000000, -0.000000000000000000, -1.000000000000000000 ) ) ;
#99 = AXIS2_PLACEMENT_3D ( 'NONE', #67, #9, #83 ) ;
#100 = APPROVAL_PERSON_ORGANIZATION ( #250, #221, #20 ) ;
#101 = LINE ( 'NONE', #182, #188 ) ;
#102 = ORIENTED_EDGE ( 'NONE', *, *, #214, .F. ) ;
#103 = PRODUCT_RELATED_PRODUCT_CATEGORY ( 'detail', '', ( #78 ) ) ;
#104 = AXIS2_PLACEMENT_3D ( 'NONE', #109, #171, #11 ) ;
#105 = LOCAL_TIME ( 15, 47, 51.00000000000000000, #251 ) ;
#106 = EDGE_LOOP ( 'NONE', ( #226, #6 ) ) ;
#107 = ORIENTED_EDGE ( 'NONE', *, *, #176, .T. ) ;
#108 = ADVANCED_FACE ( 'NONE', ( #141 ), #91, .T. ) ;
#109 = CARTESIAN_POINT ( 'NONE',  ( 0.000000000000000000, 0.000000000000000000, 100.0000000000000000 ) ) ;
#110 = AXIS2_PLACEMENT_3D ( 'NONE', #121, #74, #232 ) ;
#111 = EDGE_LOOP ( 'NONE', ( #5, #24, #247, #189 ) ) ;
#112 = PERSON_AND_ORGANIZATION ( #242, #255 ) ;
#113 = FACE_OUTER_BOUND ( 'NONE', #60, .T. ) ;
#114 = CALENDAR_DATE ( 2023, 31, 1 ) ;
#115 = CARTESIAN_POINT ( 'NONE',  ( -0.5000000000000000000, 0.000000000000000000, 1.199999999999999956 ) ) ;
#116 = AXIS2_PLACEMENT_3D ( 'NONE', #68, #156, #213 ) ;
#117 = LINE ( 'NONE', #204, #193 ) ;
#118 = LOCAL_TIME ( 15, 47, 51.00000000000000000, #70 ) ;
#119 = APPROVAL_DATE_TIME ( #139, #167 ) ;
#120 = DIRECTION ( 'NONE',  ( -0.000000000000000000, -0.000000000000000000, -1.000000000000000000 ) ) ;
#121 = CARTESIAN_POINT ( 'NONE',  ( 0.000000000000000000, 0.000000000000000000, 0.000000000000000000 ) ) ;
#122 = CARTESIAN_POINT ( 'NONE',  ( 0.5000000000000000000, 6.123233995736766036E-17, 100.0000000000000000 ) ) ;
#123 = LOCAL_TIME ( 15, 47, 51.00000000000000000, #132 ) ;
#124 = CC_DESIGN_PERSON_AND_ORGANIZATION_ASSIGNMENT ( #89, #157, ( #4 ) ) ;
#125 = CC_DESIGN_DATE_AND_TIME_ASSIGNMENT ( #159, #51, ( #224 ) ) ;
#126 = AXIS2_PLACEMENT_3D ( 'NONE', #252, #71, #216 ) ;
#127 = ORIENTED_EDGE ( 'NONE', *, *, #164, .T. ) ;
#128 = CC_DESIGN_PERSON_AND_ORGANIZATION_ASSIGNMENT ( #18, #198, ( #4 ) ) ;
#129 = ORIENTED_EDGE ( 'NONE', *, *, #154, .T. ) ;
#130 = ORIENTED_EDGE ( 'NONE', *, *, #248, .F. ) ;
#131 = AXIS2_PLACEMENT_3D ( 'NONE', #201, #217, #1 ) ;
#132 = COORDINATED_UNIVERSAL_TIME_OFFSET ( 1, 0, .AHEAD. ) ;
#133 = CC_DESIGN_APPROVAL ( #208, ( #224 ) ) ;
#134 = PLANE ( 'NONE',  #104 ) ;
#135 = CALENDAR_DATE ( 2023, 31, 1 ) ;
#136 = VERTEX_POINT ( 'NONE', #95 ) ;
#137 = APPLICATION_CONTEXT ( 'configuration controlled 3d designs of mechanical parts and assemblies' ) ;
#138 =( NAMED_UNIT ( * ) PLANE_ANGLE_UNIT ( ) SI_UNIT ( $, .RADIAN. ) );
#139 = DATE_AND_TIME ( #135, #219 ) ;
#140 = CLOSED_SHELL ( 'NONE', ( #37, #108, #244, #42, #31, #58, #19 ) ) ;
#141 = FACE_OUTER_BOUND ( 'NONE', #44, .T. ) ;
#142 = APPROVAL_DATE_TIME ( #38, #221 ) ;
#143 = CYLINDRICAL_SURFACE ( 'NONE', #55, 0.5000000000000000000 ) ;
#144 = CARTESIAN_POINT ( 'NONE',  ( 0.000000000000000000, 0.000000000000000000, 0.000000000000000000 ) ) ;
#145 = FACE_OUTER_BOUND ( 'NONE', #241, .T. ) ;
#146 = AXIS2_PLACEMENT_3D ( 'NONE', #191, #65, #86 ) ;
#147 = CIRCLE ( 'NONE', #30, 1.250000000000000000 ) ;
#148 = APPROVAL_PERSON_ORGANIZATION ( #48, #167, #249 ) ;
#149 = CC_DESIGN_DATE_AND_TIME_ASSIGNMENT ( #200, #14, ( #239 ) ) ;
#150 = FACE_BOUND ( 'NONE', #106, .T. ) ;
#151 = DIRECTION ( 'NONE',  ( -1.000000000000000000, 0.000000000000000000, 0.000000000000000000 ) ) ;
#152 = APPROVAL_STATUS ( 'not_yet_approved' ) ;
#153 = FACE_OUTER_BOUND ( 'NONE', #85, .T. ) ;
#154 = EDGE_CURVE ( 'NONE', #47, #136, #205, .T. ) ;
#155 = DATE_AND_TIME ( #210, #123 ) ;
#156 = DIRECTION ( 'NONE',  ( 0.000000000000000000, 0.000000000000000000, 1.000000000000000000 ) ) ;
#157 = PERSON_AND_ORGANIZATION_ROLE ( 'creator' ) ;
#158 = CARTESIAN_POINT ( 'NONE',  ( 0.000000000000000000, 0.000000000000000000, 1.199999999999999956 ) ) ;
#159 = DATE_AND_TIME ( #114, #118 ) ;
#160 = LINE ( 'NONE', #40, #10 ) ;
#161 = EDGE_CURVE ( 'NONE', #230, #45, #183, .T. ) ;
#162 = DIRECTION ( 'NONE',  ( 0.000000000000000000, 0.000000000000000000, 1.000000000000000000 ) ) ;
#163 = LINE ( 'NONE', #122, #186 ) ;
#164 = EDGE_CURVE ( 'NONE', #84, #243, #73, .T. ) ;
#165 = CIRCLE ( 'NONE', #99, 1.250000000000000000 ) ;
#166 = CC_DESIGN_APPROVAL ( #221, ( #239 ) ) ;
#167 = APPROVAL ( #178, 'NEURÈENÝ' ) ;
#168 = VERTEX_POINT ( 'NONE', #181 ) ;
#169 = DESIGN_CONTEXT ( 'detailed design', #137, 'design' ) ;
#170 = CC_DESIGN_APPROVAL ( #167, ( #4 ) ) ;
#171 = DIRECTION ( 'NONE',  ( 0.000000000000000000, 0.000000000000000000, 1.000000000000000000 ) ) ;
#172 = CYLINDRICAL_SURFACE ( 'NONE', #254, 0.5000000000000000000 ) ;
#173 = APPROVAL_PERSON_ORGANIZATION ( #112, #208, #46 ) ;
#174 = EDGE_LOOP ( 'NONE', ( #87, #107 ) ) ;
#175 = DIRECTION ( 'NONE',  ( 0.000000000000000000, 0.000000000000000000, 1.000000000000000000 ) ) ;
#176 = EDGE_CURVE ( 'NONE', #45, #230, #16, .T. ) ;
#177 = ORIENTED_EDGE ( 'NONE', *, *, #13, .F. ) ;
#178 = APPROVAL_STATUS ( 'not_yet_approved' ) ;
#179 = DIRECTION ( 'NONE',  ( -0.000000000000000000, -0.000000000000000000, -1.000000000000000000 ) ) ;
#180 = PERSON_AND_ORGANIZATION ( #242, #255 ) ;
#181 = CARTESIAN_POINT ( 'NONE',  ( 1.250000000000000000, 1.530808498934191571E-16, 1.199999999999999956 ) ) ;
#182 = CARTESIAN_POINT ( 'NONE',  ( 1.250000000000000000, 1.530808498934191571E-16, 1.199999999999999956 ) ) ;
#183 = CIRCLE ( 'NONE', #126, 0.5000000000000000000 ) ;
#184 = ADVANCED_BREP_SHAPE_REPRESENTATION ( '736a', ( #196, #146 ), #81 ) ;
#185 = DIRECTION ( 'NONE',  ( -1.000000000000000000, 0.000000000000000000, 0.000000000000000000 ) ) ;
#186 = VECTOR ( 'NONE', #2, 1000.000000000000000 ) ;
#187 = CC_DESIGN_PERSON_AND_ORGANIZATION_ASSIGNMENT ( #180, #94, ( #224 ) ) ;
#188 = VECTOR ( 'NONE', #120, 1000.000000000000000 ) ;
#189 = ORIENTED_EDGE ( 'NONE', *, *, #194, .F. ) ;
#190 = CARTESIAN_POINT ( 'NONE',  ( 0.000000000000000000, 0.000000000000000000, 1.199999999999999956 ) ) ;
#191 = CARTESIAN_POINT ( 'NONE',  ( 0.000000000000000000, 0.000000000000000000, 0.000000000000000000 ) ) ;
#192 = CARTESIAN_POINT ( 'NONE',  ( 0.000000000000000000, 0.000000000000000000, 0.000000000000000000 ) ) ;
#193 = VECTOR ( 'NONE', #69, 1000.000000000000000 ) ;
#194 = EDGE_CURVE ( 'NONE', #230, #47, #117, .T. ) ;
#195 = ORIENTED_EDGE ( 'NONE', *, *, #240, .F. ) ;
#196 = MANIFOLD_SOLID_BREP ( 'Pøidat vysunutím3', #140 ) ;
#197 = PLANE ( 'NONE',  #116 ) ;
#198 = PERSON_AND_ORGANIZATION_ROLE ( 'design_supplier' ) ;
#199 = DIRECTION ( 'NONE',  ( 1.000000000000000000, 0.000000000000000000, 0.000000000000000000 ) ) ;
#200 = DATE_AND_TIME ( #202, #92 ) ;
#201 = CARTESIAN_POINT ( 'NONE',  ( 0.000000000000000000, 0.000000000000000000, 1.199999999999999956 ) ) ;
#202 = CALENDAR_DATE ( 2023, 31, 1 ) ;
#203 = CARTESIAN_POINT ( 'NONE',  ( -1.250000000000000000, 0.000000000000000000, 0.000000000000000000 ) ) ;
#204 = CARTESIAN_POINT ( 'NONE',  ( -0.5000000000000000000, 0.000000000000000000, 100.0000000000000000 ) ) ;
#205 = CIRCLE ( 'NONE', #90, 0.5000000000000000000 ) ;
#206 = AXIS2_PLACEMENT_3D ( 'NONE', #36, #15, #39 ) ;
#207 = ORIENTED_EDGE ( 'NONE', *, *, #248, .T. ) ;
#208 = APPROVAL ( #152, 'NEURÈENÝ' ) ;
#209 = PERSON_AND_ORGANIZATION_ROLE ( 'design_owner' ) ;
#210 = CALENDAR_DATE ( 2023, 31, 1 ) ;
#211 = DIRECTION ( 'NONE',  ( 0.000000000000000000, 0.000000000000000000, 1.000000000000000000 ) ) ;
#212 = COORDINATED_UNIVERSAL_TIME_OFFSET ( 1, 0, .AHEAD. ) ;
#213 = DIRECTION ( 'NONE',  ( 1.000000000000000000, 0.000000000000000000, -0.000000000000000000 ) ) ;
#214 = EDGE_CURVE ( 'NONE', #76, #243, #160, .T. ) ;
#215 = PERSON_AND_ORGANIZATION ( #242, #255 ) ;
#216 = DIRECTION ( 'NONE',  ( 1.000000000000000000, 0.000000000000000000, 0.000000000000000000 ) ) ;
#217 = DIRECTION ( 'NONE',  ( -0.000000000000000000, -0.000000000000000000, -1.000000000000000000 ) ) ;
#218 = CARTESIAN_POINT ( 'NONE',  ( 0.000000000000000000, 0.000000000000000000, 1.199999999999999956 ) ) ;
#219 = LOCAL_TIME ( 15, 47, 51.00000000000000000, #212 ) ;
#220 =( LENGTH_UNIT ( ) NAMED_UNIT ( * ) SI_UNIT ( .MILLI., .METRE. ) );
#221 = APPROVAL ( #35, 'NEURÈENÝ' ) ;
#222 = CIRCLE ( 'NONE', #88, 0.5000000000000000000 ) ;
#223 = ORIENTED_EDGE ( 'NONE', *, *, #164, .F. ) ;
#224 = PRODUCT_DEFINITION ( 'NEZNÁMÝ', '', #4, #169 ) ;
#225 = MECHANICAL_CONTEXT ( 'NONE', #57, 'mechanical' ) ;
#226 = ORIENTED_EDGE ( 'NONE', *, *, #154, .F. ) ;
#227 = PERSON_AND_ORGANIZATION ( #242, #255 ) ;
#228 = PLANE ( 'NONE',  #75 ) ;
#229 = AXIS2_PLACEMENT_3D ( 'NONE', #218, #21, #185 ) ;
#230 = VERTEX_POINT ( 'NONE', #72 ) ;
#231 = SECURITY_CLASSIFICATION_LEVEL ( 'unclassified' ) ;
#232 = DIRECTION ( 'NONE',  ( 1.000000000000000000, 0.000000000000000000, 0.000000000000000000 ) ) ;
#233 = APPROVAL_DATE_TIME ( #155, #208 ) ;
#234 = CARTESIAN_POINT ( 'NONE',  ( 0.000000000000000000, 0.000000000000000000, 1.199999999999999956 ) ) ;
#235 = SHAPE_DEFINITION_REPRESENTATION ( #41, #184 ) ;
#236 = DIRECTION ( 'NONE',  ( 1.000000000000000000, 0.000000000000000000, 0.000000000000000000 ) ) ;
#237 = CYLINDRICAL_SURFACE ( 'NONE', #229, 1.250000000000000000 ) ;
#238 = CARTESIAN_POINT ( 'NONE',  ( -1.250000000000000000, 0.000000000000000000, 1.199999999999999956 ) ) ;
#239 = SECURITY_CLASSIFICATION ( '', '', #231 ) ;
#240 = EDGE_CURVE ( 'NONE', #168, #84, #101, .T. ) ;
#241 = EDGE_LOOP ( 'NONE', ( #195, #66, #79, #207 ) ) ;
#242 = PERSON ( 'NEURÈENÝ', 'NEURÈENÝ', 'NEURÈENÝ', ('NEURÈENÝ'), ('NEURÈENÝ'), ('NEURÈENÝ') ) ;
#243 = VERTEX_POINT ( 'NONE', #203 ) ;
#244 = ADVANCED_FACE ( 'NONE', ( #145 ), #237, .T. ) ;
#245 = ORIENTED_EDGE ( 'NONE', *, *, #161, .F. ) ;
#246 = ORIENTED_EDGE ( 'NONE', *, *, #253, .F. ) ;
#247 = ORIENTED_EDGE ( 'NONE', *, *, #3, .T. ) ;
#248 = EDGE_CURVE ( 'NONE', #243, #84, #25, .T. ) ;
#249 = APPROVAL_ROLE ( '' ) ;
#250 = PERSON_AND_ORGANIZATION ( #242, #255 ) ;
#251 = COORDINATED_UNIVERSAL_TIME_OFFSET ( 1, 0, .AHEAD. ) ;
#252 = CARTESIAN_POINT ( 'NONE',  ( 0.000000000000000000, 0.000000000000000000, 100.0000000000000000 ) ) ;
#253 = EDGE_CURVE ( 'NONE', #45, #136, #163, .T. ) ;
#254 = AXIS2_PLACEMENT_3D ( 'NONE', #32, #12, #151 ) ;
#255 = ORGANIZATION ( 'NEURÈENÝ', 'NEURÈENÝ', '' ) ;
ENDSEC;
END-ISO-10303-21;
