ISO-10303-21;
HEADER;
FILE_DESCRIPTION (( 'STEP AP203' ),
    '1' );
FILE_NAME ('2303.STEP',
    '2023-02-13T12:55:15',
    ( '' ),
    ( '' ),
    'SwSTEP 2.0',
    'SolidWorks 2019',
    '' );
FILE_SCHEMA (( 'CONFIG_CONTROL_DESIGN' ));
ENDSEC;

DATA;
#1 = FACE_OUTER_BOUND ( 'NONE', #73, .T. ) ;
#2 = APPROVAL ( #113, 'NEURÈENÝ' ) ;
#3 = LOCAL_TIME ( 13, 55, 15.00000000000000000, #159 ) ;
#4 = DIRECTION ( 'NONE',  ( 1.000000000000000000, 0.000000000000000000, 0.000000000000000000 ) ) ;
#5 = APPROVAL_PERSON_ORGANIZATION ( #58, #2, #255 ) ;
#6 = DIRECTION ( 'NONE',  ( 1.000000000000000000, 0.000000000000000000, -0.000000000000000000 ) ) ;
#7 = DIRECTION ( 'NONE',  ( 0.000000000000000000, 0.000000000000000000, 1.000000000000000000 ) ) ;
#8 =( NAMED_UNIT ( * ) PLANE_ANGLE_UNIT ( ) SI_UNIT ( $, .RADIAN. ) );
#9 = SECURITY_CLASSIFICATION ( '', '', #140 ) ;
#10 = DIRECTION ( 'NONE',  ( 1.000000000000000000, 0.000000000000000000, 0.000000000000000000 ) ) ;
#11 = ADVANCED_FACE ( 'NONE', ( #69 ), #123, .T. ) ;
#12 = LINE ( 'NONE', #79, #114 ) ;
#13 = VECTOR ( 'NONE', #254, 1000.000000000000000 ) ;
#14 = PRODUCT_DEFINITION_FORMATION_WITH_SPECIFIED_SOURCE ( 'LIBOVOLNÝ', '', #88, .NOT_KNOWN. ) ;
#15 = CC_DESIGN_PERSON_AND_ORGANIZATION_ASSIGNMENT ( #225, #221, ( #9 ) ) ;
#16 = ORGANIZATION ( 'NEURÈENÝ', 'NEURÈENÝ', '' ) ;
#17 = DIRECTION ( 'NONE',  ( 0.000000000000000000, 0.000000000000000000, 1.000000000000000000 ) ) ;
#18 = CC_DESIGN_PERSON_AND_ORGANIZATION_ASSIGNMENT ( #136, #42, ( #101 ) ) ;
#19 = DIRECTION ( 'NONE',  ( 1.000000000000000000, 0.000000000000000000, -0.000000000000000000 ) ) ;
#20 = CALENDAR_DATE ( 2023, 13, 2 ) ;
#21 = VERTEX_POINT ( 'NONE', #202 ) ;
#22 = EDGE_CURVE ( 'NONE', #21, #43, #97, .T. ) ;
#23 = EDGE_LOOP ( 'NONE', ( #191, #215 ) ) ;
#24 = CYLINDRICAL_SURFACE ( 'NONE', #176, 7.000000000000000000 ) ;
#25 = CC_DESIGN_DATE_AND_TIME_ASSIGNMENT ( #77, #229, ( #9 ) ) ;
#26 = CARTESIAN_POINT ( 'NONE',  ( 0.000000000000000000, 0.000000000000000000, 5.000000000000000000 ) ) ;
#27 = CARTESIAN_POINT ( 'NONE',  ( 0.000000000000000000, 0.000000000000000000, 0.000000000000000000 ) ) ;
#28 = EDGE_LOOP ( 'NONE', ( #89, #150, #75, #226 ) ) ;
#29 = CARTESIAN_POINT ( 'NONE',  ( -7.000000000000000000, 0.000000000000000000, 5.000000000000000000 ) ) ;
#30 = ORIENTED_EDGE ( 'NONE', *, *, #81, .F. ) ;
#31 =( LENGTH_UNIT ( ) NAMED_UNIT ( * ) SI_UNIT ( .MILLI., .METRE. ) );
#32 = ORIENTED_EDGE ( 'NONE', *, *, #22, .T. ) ;
#33 = CC_DESIGN_APPROVAL ( #160, ( #14 ) ) ;
#34 = ORIENTED_EDGE ( 'NONE', *, *, #81, .T. ) ;
#35 = CARTESIAN_POINT ( 'NONE',  ( 0.000000000000000000, 0.000000000000000000, 5.000000000000000000 ) ) ;
#36 = APPROVAL_ROLE ( '' ) ;
#37 = LOCAL_TIME ( 13, 55, 15.00000000000000000, #230 ) ;
#38 = DIRECTION ( 'NONE',  ( 0.000000000000000000, 0.000000000000000000, 1.000000000000000000 ) ) ;
#39 = APPLICATION_PROTOCOL_DEFINITION ( 'international standard', 'config_control_design', 1994, #204 ) ;
#40 = CARTESIAN_POINT ( 'NONE',  ( -4.099999999999999645, 0.000000000000000000, 125.0000000000000000 ) ) ;
#41 = DATE_AND_TIME ( #190, #37 ) ;
#42 = PERSON_AND_ORGANIZATION_ROLE ( 'creator' ) ;
#43 = VERTEX_POINT ( 'NONE', #59 ) ;
#44 = LOCAL_TIME ( 13, 55, 15.00000000000000000, #92 ) ;
#45 = DESIGN_CONTEXT ( 'detailed design', #65, 'design' ) ;
#46 = VECTOR ( 'NONE', #99, 1000.000000000000000 ) ;
#47 = EDGE_CURVE ( 'NONE', #54, #164, #231, .T. ) ;
#48 = ORIENTED_EDGE ( 'NONE', *, *, #240, .F. ) ;
#49 = FACE_BOUND ( 'NONE', #52, .T. ) ;
#50 = DIRECTION ( 'NONE',  ( -0.000000000000000000, -0.000000000000000000, -1.000000000000000000 ) ) ;
#51 = PRODUCT_RELATED_PRODUCT_CATEGORY ( 'detail', '', ( #88 ) ) ;
#52 = EDGE_LOOP ( 'NONE', ( #124, #48 ) ) ;
#53 = DIRECTION ( 'NONE',  ( 1.000000000000000000, 0.000000000000000000, 0.000000000000000000 ) ) ;
#54 = VERTEX_POINT ( 'NONE', #218 ) ;
#55 = FACE_OUTER_BOUND ( 'NONE', #145, .T. ) ;
#56 =( NAMED_UNIT ( * ) SI_UNIT ( $, .STERADIAN. ) SOLID_ANGLE_UNIT ( ) );
#57 = DIRECTION ( 'NONE',  ( -0.000000000000000000, -0.000000000000000000, -1.000000000000000000 ) ) ;
#58 = PERSON_AND_ORGANIZATION ( #115, #16 ) ;
#59 = CARTESIAN_POINT ( 'NONE',  ( 4.099999999999999645, 5.021051876504147385E-16, 5.000000000000000000 ) ) ;
#60 = APPLICATION_PROTOCOL_DEFINITION ( 'international standard', 'config_control_design', 1994, #65 ) ;
#61 = APPROVAL_DATE_TIME ( #134, #234 ) ;
#62 = CYLINDRICAL_SURFACE ( 'NONE', #95, 4.099999999999999645 ) ;
#63 = ADVANCED_FACE ( 'NONE', ( #121 ), #171, .F. ) ;
#64 = CIRCLE ( 'NONE', #192, 4.099999999999999645 ) ;
#65 = APPLICATION_CONTEXT ( 'configuration controlled 3d designs of mechanical parts and assemblies' ) ;
#66 = EDGE_CURVE ( 'NONE', #181, #21, #158, .T. ) ;
#67 = CARTESIAN_POINT ( 'NONE',  ( 7.000000000000000000, 8.572527594031473190E-16, 0.000000000000000000 ) ) ;
#68 = AXIS2_PLACEMENT_3D ( 'NONE', #27, #165, #107 ) ;
#69 = FACE_OUTER_BOUND ( 'NONE', #200, .T. ) ;
#70 = CIRCLE ( 'NONE', #206, 4.099999999999999645 ) ;
#71 = ORIENTED_EDGE ( 'NONE', *, *, #149, .T. ) ;
#72 = ADVANCED_FACE ( 'NONE', ( #1 ), #62, .T. ) ;
#73 = EDGE_LOOP ( 'NONE', ( #109, #223, #34, #71 ) ) ;
#74 = MANIFOLD_SOLID_BREP ( 'Pøidat vysunutím3', #85 ) ;
#75 = ORIENTED_EDGE ( 'NONE', *, *, #142, .T. ) ;
#76 = CALENDAR_DATE ( 2023, 13, 2 ) ;
#77 = DATE_AND_TIME ( #188, #3 ) ;
#78 = CC_DESIGN_PERSON_AND_ORGANIZATION_ASSIGNMENT ( #102, #177, ( #14 ) ) ;
#79 = CARTESIAN_POINT ( 'NONE',  ( -7.000000000000000000, 0.000000000000000000, 5.000000000000000000 ) ) ;
#80 = CARTESIAN_POINT ( 'NONE',  ( 0.000000000000000000, 0.000000000000000000, 0.000000000000000000 ) ) ;
#81 = EDGE_CURVE ( 'NONE', #181, #198, #209, .T. ) ;
#82 = DIRECTION ( 'NONE',  ( 1.000000000000000000, 0.000000000000000000, 0.000000000000000000 ) ) ;
#83 = DIRECTION ( 'NONE',  ( -1.000000000000000000, 0.000000000000000000, 0.000000000000000000 ) ) ;
#84 = DIRECTION ( 'NONE',  ( -0.000000000000000000, -0.000000000000000000, -1.000000000000000000 ) ) ;
#85 = CLOSED_SHELL ( 'NONE', ( #154, #157, #216, #224, #63, #72, #11 ) ) ;
#86 = LOCAL_TIME ( 13, 55, 15.00000000000000000, #174 ) ;
#87 = ORIENTED_EDGE ( 'NONE', *, *, #47, .T. ) ;
#88 = PRODUCT ( '2303', '2303', '', ( #112 ) ) ;
#89 = ORIENTED_EDGE ( 'NONE', *, *, #47, .F. ) ;
#90 = AXIS2_PLACEMENT_3D ( 'NONE', #163, #129, #148 ) ;
#91 = CIRCLE ( 'NONE', #104, 4.099999999999999645 ) ;
#92 = COORDINATED_UNIVERSAL_TIME_OFFSET ( 1, 0, .AHEAD. ) ;
#93 = APPROVAL_PERSON_ORGANIZATION ( #186, #234, #36 ) ;
#94 = PERSON_AND_ORGANIZATION_ROLE ( 'design_owner' ) ;
#95 = AXIS2_PLACEMENT_3D ( 'NONE', #212, #135, #83 ) ;
#96 = CC_DESIGN_PERSON_AND_ORGANIZATION_ASSIGNMENT ( #213, #117, ( #14 ) ) ;
#97 = LINE ( 'NONE', #228, #13 ) ;
#98 = SHAPE_DEFINITION_REPRESENTATION ( #184, #180 ) ;
#99 = DIRECTION ( 'NONE',  ( -0.000000000000000000, -0.000000000000000000, -1.000000000000000000 ) ) ;
#100 = CARTESIAN_POINT ( 'NONE',  ( 7.000000000000000000, 8.572527594031473190E-16, 5.000000000000000000 ) ) ;
#101 = PRODUCT_DEFINITION ( 'NEZNÁMÝ', '', #14, #45 ) ;
#102 = PERSON_AND_ORGANIZATION ( #115, #16 ) ;
#103 = CALENDAR_DATE ( 2023, 13, 2 ) ;
#104 = AXIS2_PLACEMENT_3D ( 'NONE', #196, #199, #10 ) ;
#105 = DIRECTION ( 'NONE',  ( 0.000000000000000000, 0.000000000000000000, 1.000000000000000000 ) ) ;
#106 = ORIENTED_EDGE ( 'NONE', *, *, #142, .F. ) ;
#107 = DIRECTION ( 'NONE',  ( 1.000000000000000000, 0.000000000000000000, 0.000000000000000000 ) ) ;
#108 = FACE_OUTER_BOUND ( 'NONE', #128, .T. ) ;
#109 = ORIENTED_EDGE ( 'NONE', *, *, #22, .F. ) ;
#110 = DIRECTION ( 'NONE',  ( 0.000000000000000000, 0.000000000000000000, 1.000000000000000000 ) ) ;
#111 = DIRECTION ( 'NONE',  ( 1.000000000000000000, 0.000000000000000000, 0.000000000000000000 ) ) ;
#112 = MECHANICAL_CONTEXT ( 'NONE', #204, 'mechanical' ) ;
#113 = APPROVAL_STATUS ( 'not_yet_approved' ) ;
#114 = VECTOR ( 'NONE', #57, 1000.000000000000000 ) ;
#115 = PERSON ( 'NEURÈENÝ', 'NEURÈENÝ', 'NEURÈENÝ', ('NEURÈENÝ'), ('NEURÈENÝ'), ('NEURÈENÝ') ) ;
#116 = CARTESIAN_POINT ( 'NONE',  ( 0.000000000000000000, 0.000000000000000000, 0.000000000000000000 ) ) ;
#117 = PERSON_AND_ORGANIZATION_ROLE ( 'creator' ) ;
#118 = EDGE_CURVE ( 'NONE', #164, #242, #166, .T. ) ;
#119 = DATE_AND_TIME ( #103, #86 ) ;
#120 = CC_DESIGN_APPROVAL ( #2, ( #101 ) ) ;
#121 = FACE_OUTER_BOUND ( 'NONE', #23, .T. ) ;
#122 = CARTESIAN_POINT ( 'NONE',  ( -4.099999999999999645, 0.000000000000000000, 5.000000000000000000 ) ) ;
#123 = PLANE ( 'NONE',  #189 ) ;
#124 = ORIENTED_EDGE ( 'NONE', *, *, #149, .F. ) ;
#125 = CARTESIAN_POINT ( 'NONE',  ( -7.000000000000000000, 0.000000000000000000, 0.000000000000000000 ) ) ;
#126 = EDGE_LOOP ( 'NONE', ( #243, #32, #143, #30 ) ) ;
#127 = AXIS2_PLACEMENT_3D ( 'NONE', #26, #7, #111 ) ;
#128 = EDGE_LOOP ( 'NONE', ( #182, #162 ) ) ;
#129 = DIRECTION ( 'NONE',  ( -0.000000000000000000, -0.000000000000000000, -1.000000000000000000 ) ) ;
#130 = CC_DESIGN_PERSON_AND_ORGANIZATION_ASSIGNMENT ( #155, #94, ( #88 ) ) ;
#131 = AXIS2_PLACEMENT_3D ( 'NONE', #175, #173, #4 ) ;
#132 = EDGE_CURVE ( 'NONE', #54, #193, #238, .T. ) ;
#133 = AXIS2_PLACEMENT_3D ( 'NONE', #235, #138, #82 ) ;
#134 = DATE_AND_TIME ( #76, #44 ) ;
#135 = DIRECTION ( 'NONE',  ( -0.000000000000000000, -0.000000000000000000, -1.000000000000000000 ) ) ;
#136 = PERSON_AND_ORGANIZATION ( #115, #16 ) ;
#137 = COORDINATED_UNIVERSAL_TIME_OFFSET ( 1, 0, .AHEAD. ) ;
#138 = DIRECTION ( 'NONE',  ( 0.000000000000000000, 0.000000000000000000, 1.000000000000000000 ) ) ;
#139 = DATE_AND_TIME ( #20, #249 ) ;
#140 = SECURITY_CLASSIFICATION_LEVEL ( 'unclassified' ) ;
#141 = CARTESIAN_POINT ( 'NONE',  ( 0.000000000000000000, 0.000000000000000000, 0.000000000000000000 ) ) ;
#142 = EDGE_CURVE ( 'NONE', #193, #242, #12, .T. ) ;
#143 = ORIENTED_EDGE ( 'NONE', *, *, #240, .T. ) ;
#144 = CARTESIAN_POINT ( 'NONE',  ( 0.000000000000000000, 0.000000000000000000, 5.000000000000000000 ) ) ;
#145 = EDGE_LOOP ( 'NONE', ( #194, #87, #227, #106 ) ) ;
#146 = ORIENTED_EDGE ( 'NONE', *, *, #244, .T. ) ;
#147 = AXIS2_PLACEMENT_3D ( 'NONE', #116, #17, #19 ) ;
#148 = DIRECTION ( 'NONE',  ( -1.000000000000000000, 0.000000000000000000, 0.000000000000000000 ) ) ;
#149 = EDGE_CURVE ( 'NONE', #198, #43, #64, .T. ) ;
#150 = ORIENTED_EDGE ( 'NONE', *, *, #170, .F. ) ;
#151 = FACE_OUTER_BOUND ( 'NONE', #28, .T. ) ;
#152 = DIRECTION ( 'NONE',  ( 1.000000000000000000, 0.000000000000000000, -0.000000000000000000 ) ) ;
#153 = DIRECTION ( 'NONE',  ( 0.000000000000000000, 0.000000000000000000, 1.000000000000000000 ) ) ;
#154 = ADVANCED_FACE ( 'NONE', ( #233 ), #208, .T. ) ;
#155 = PERSON_AND_ORGANIZATION ( #115, #16 ) ;
#156 = AXIS2_PLACEMENT_3D ( 'NONE', #245, #105, #6 ) ;
#157 = ADVANCED_FACE ( 'NONE', ( #55 ), #201, .T. ) ;
#158 = CIRCLE ( 'NONE', #131, 4.099999999999999645 ) ;
#159 = COORDINATED_UNIVERSAL_TIME_OFFSET ( 1, 0, .AHEAD. ) ;
#160 = APPROVAL ( #172, 'NEURÈENÝ' ) ;
#161 = PLANE ( 'NONE',  #156 ) ;
#162 = ORIENTED_EDGE ( 'NONE', *, *, #132, .T. ) ;
#163 = CARTESIAN_POINT ( 'NONE',  ( 0.000000000000000000, 0.000000000000000000, 125.0000000000000000 ) ) ;
#164 = VERTEX_POINT ( 'NONE', #67 ) ;
#165 = DIRECTION ( 'NONE',  ( 0.000000000000000000, 0.000000000000000000, 1.000000000000000000 ) ) ;
#166 = CIRCLE ( 'NONE', #185, 7.000000000000000000 ) ;
#167 = DIRECTION ( 'NONE',  ( 1.000000000000000000, 0.000000000000000000, 0.000000000000000000 ) ) ;
#168 = APPROVAL_PERSON_ORGANIZATION ( #179, #160, #236 ) ;
#169 = DIRECTION ( 'NONE',  ( -1.000000000000000000, 0.000000000000000000, 0.000000000000000000 ) ) ;
#170 = EDGE_CURVE ( 'NONE', #193, #54, #219, .T. ) ;
#171 = PLANE ( 'NONE',  #147 ) ;
#172 = APPROVAL_STATUS ( 'not_yet_approved' ) ;
#173 = DIRECTION ( 'NONE',  ( 0.000000000000000000, 0.000000000000000000, 1.000000000000000000 ) ) ;
#174 = COORDINATED_UNIVERSAL_TIME_OFFSET ( 1, 0, .AHEAD. ) ;
#175 = CARTESIAN_POINT ( 'NONE',  ( 0.000000000000000000, 0.000000000000000000, 125.0000000000000000 ) ) ;
#176 = AXIS2_PLACEMENT_3D ( 'NONE', #222, #50, #183 ) ;
#177 = PERSON_AND_ORGANIZATION_ROLE ( 'design_supplier' ) ;
#178 = DIRECTION ( 'NONE',  ( -0.000000000000000000, -0.000000000000000000, -1.000000000000000000 ) ) ;
#179 = PERSON_AND_ORGANIZATION ( #115, #16 ) ;
#180 = ADVANCED_BREP_SHAPE_REPRESENTATION ( '2303', ( #74, #232 ), #187 ) ;
#181 = VERTEX_POINT ( 'NONE', #197 ) ;
#182 = ORIENTED_EDGE ( 'NONE', *, *, #170, .T. ) ;
#183 = DIRECTION ( 'NONE',  ( -1.000000000000000000, 0.000000000000000000, 0.000000000000000000 ) ) ;
#184 = PRODUCT_DEFINITION_SHAPE ( 'NONE', 'NONE',  #101 ) ;
#185 = AXIS2_PLACEMENT_3D ( 'NONE', #141, #195, #220 ) ;
#186 = PERSON_AND_ORGANIZATION ( #115, #16 ) ;
#187 =( GEOMETRIC_REPRESENTATION_CONTEXT ( 3 ) GLOBAL_UNCERTAINTY_ASSIGNED_CONTEXT ( ( #217 ) ) GLOBAL_UNIT_ASSIGNED_CONTEXT ( ( #31, #8, #56 ) ) REPRESENTATION_CONTEXT ( 'NONE', 'WORKASPACE' ) );
#188 = CALENDAR_DATE ( 2023, 13, 2 ) ;
#189 = AXIS2_PLACEMENT_3D ( 'NONE', #250, #110, #152 ) ;
#190 = CALENDAR_DATE ( 2023, 13, 2 ) ;
#191 = ORIENTED_EDGE ( 'NONE', *, *, #248, .F. ) ;
#192 = AXIS2_PLACEMENT_3D ( 'NONE', #207, #38, #167 ) ;
#193 = VERTEX_POINT ( 'NONE', #29 ) ;
#194 = ORIENTED_EDGE ( 'NONE', *, *, #132, .F. ) ;
#195 = DIRECTION ( 'NONE',  ( 0.000000000000000000, 0.000000000000000000, 1.000000000000000000 ) ) ;
#196 = CARTESIAN_POINT ( 'NONE',  ( 0.000000000000000000, 0.000000000000000000, 125.0000000000000000 ) ) ;
#197 = CARTESIAN_POINT ( 'NONE',  ( -4.099999999999999645, 0.000000000000000000, 125.0000000000000000 ) ) ;
#198 = VERTEX_POINT ( 'NONE', #122 ) ;
#199 = DIRECTION ( 'NONE',  ( 0.000000000000000000, 0.000000000000000000, 1.000000000000000000 ) ) ;
#200 = EDGE_LOOP ( 'NONE', ( #247, #146 ) ) ;
#201 = CYLINDRICAL_SURFACE ( 'NONE', #211, 7.000000000000000000 ) ;
#202 = CARTESIAN_POINT ( 'NONE',  ( 4.099999999999999645, 5.021051876504147385E-16, 125.0000000000000000 ) ) ;
#203 = DIRECTION ( 'NONE',  ( 0.000000000000000000, 0.000000000000000000, 1.000000000000000000 ) ) ;
#204 = APPLICATION_CONTEXT ( 'configuration controlled 3d designs of mechanical parts and assemblies' ) ;
#205 = CC_DESIGN_DATE_AND_TIME_ASSIGNMENT ( #119, #210, ( #101 ) ) ;
#206 = AXIS2_PLACEMENT_3D ( 'NONE', #144, #203, #53 ) ;
#207 = CARTESIAN_POINT ( 'NONE',  ( 0.000000000000000000, 0.000000000000000000, 5.000000000000000000 ) ) ;
#208 = CYLINDRICAL_SURFACE ( 'NONE', #90, 4.099999999999999645 ) ;
#209 = LINE ( 'NONE', #40, #46 ) ;
#210 = DATE_TIME_ROLE ( 'creation_date' ) ;
#211 = AXIS2_PLACEMENT_3D ( 'NONE', #35, #178, #169 ) ;
#212 = CARTESIAN_POINT ( 'NONE',  ( 0.000000000000000000, 0.000000000000000000, 125.0000000000000000 ) ) ;
#213 = PERSON_AND_ORGANIZATION ( #115, #16 ) ;
#214 = APPROVAL_DATE_TIME ( #41, #2 ) ;
#215 = ORIENTED_EDGE ( 'NONE', *, *, #118, .F. ) ;
#216 = ADVANCED_FACE ( 'NONE', ( #151 ), #24, .T. ) ;
#217 = UNCERTAINTY_MEASURE_WITH_UNIT (LENGTH_MEASURE( 1.000000000000000082E-05 ), #31, 'distance_accuracy_value', 'NONE');
#218 = CARTESIAN_POINT ( 'NONE',  ( 7.000000000000000000, 8.572527594031473190E-16, 5.000000000000000000 ) ) ;
#219 = CIRCLE ( 'NONE', #133, 7.000000000000000000 ) ;
#220 = DIRECTION ( 'NONE',  ( 1.000000000000000000, 0.000000000000000000, 0.000000000000000000 ) ) ;
#221 = PERSON_AND_ORGANIZATION_ROLE ( 'classification_officer' ) ;
#222 = CARTESIAN_POINT ( 'NONE',  ( 0.000000000000000000, 0.000000000000000000, 5.000000000000000000 ) ) ;
#223 = ORIENTED_EDGE ( 'NONE', *, *, #66, .F. ) ;
#224 = ADVANCED_FACE ( 'NONE', ( #49, #108 ), #161, .T. ) ;
#225 = PERSON_AND_ORGANIZATION ( #115, #16 ) ;
#226 = ORIENTED_EDGE ( 'NONE', *, *, #248, .T. ) ;
#227 = ORIENTED_EDGE ( 'NONE', *, *, #118, .T. ) ;
#228 = CARTESIAN_POINT ( 'NONE',  ( 4.099999999999999645, 5.021051876504147385E-16, 125.0000000000000000 ) ) ;
#229 = DATE_TIME_ROLE ( 'classification_date' ) ;
#230 = COORDINATED_UNIVERSAL_TIME_OFFSET ( 1, 0, .AHEAD. ) ;
#231 = LINE ( 'NONE', #100, #253 ) ;
#232 = AXIS2_PLACEMENT_3D ( 'NONE', #80, #153, #251 ) ;
#233 = FACE_OUTER_BOUND ( 'NONE', #126, .T. ) ;
#234 = APPROVAL ( #252, 'NEURÈENÝ' ) ;
#235 = CARTESIAN_POINT ( 'NONE',  ( 0.000000000000000000, 0.000000000000000000, 5.000000000000000000 ) ) ;
#236 = APPROVAL_ROLE ( '' ) ;
#237 = CC_DESIGN_SECURITY_CLASSIFICATION ( #9, ( #14 ) ) ;
#238 = CIRCLE ( 'NONE', #127, 7.000000000000000000 ) ;
#239 = APPROVAL_DATE_TIME ( #139, #160 ) ;
#240 = EDGE_CURVE ( 'NONE', #43, #198, #70, .T. ) ;
#241 = CC_DESIGN_APPROVAL ( #234, ( #9 ) ) ;
#242 = VERTEX_POINT ( 'NONE', #125 ) ;
#243 = ORIENTED_EDGE ( 'NONE', *, *, #244, .F. ) ;
#244 = EDGE_CURVE ( 'NONE', #21, #181, #91, .T. ) ;
#245 = CARTESIAN_POINT ( 'NONE',  ( 0.000000000000000000, 0.000000000000000000, 5.000000000000000000 ) ) ;
#246 = CIRCLE ( 'NONE', #68, 7.000000000000000000 ) ;
#247 = ORIENTED_EDGE ( 'NONE', *, *, #66, .T. ) ;
#248 = EDGE_CURVE ( 'NONE', #242, #164, #246, .T. ) ;
#249 = LOCAL_TIME ( 13, 55, 15.00000000000000000, #137 ) ;
#250 = CARTESIAN_POINT ( 'NONE',  ( 0.000000000000000000, 0.000000000000000000, 125.0000000000000000 ) ) ;
#251 = DIRECTION ( 'NONE',  ( 1.000000000000000000, 0.000000000000000000, 0.000000000000000000 ) ) ;
#252 = APPROVAL_STATUS ( 'not_yet_approved' ) ;
#253 = VECTOR ( 'NONE', #84, 1000.000000000000000 ) ;
#254 = DIRECTION ( 'NONE',  ( -0.000000000000000000, -0.000000000000000000, -1.000000000000000000 ) ) ;
#255 = APPROVAL_ROLE ( '' ) ;
ENDSEC;
END-ISO-10303-21;
