ISO-10303-21;
HEADER;
FILE_DESCRIPTION (( 'STEP AP203' ),
    '1' );
FILE_NAME ('1186.STEP',
    '2023-02-13T12:51:52',
    ( '' ),
    ( '' ),
    'SwSTEP 2.0',
    'SolidWorks 2019',
    '' );
FILE_SCHEMA (( 'CONFIG_CONTROL_DESIGN' ));
ENDSEC;

DATA;
#1 = DIRECTION ( 'NONE',  ( 0.000000000000000000, 0.000000000000000000, 1.000000000000000000 ) ) ;
#2 = APPROVAL_STATUS ( 'not_yet_approved' ) ;
#3 = APPROVAL_ROLE ( '' ) ;
#4 = DIRECTION ( 'NONE',  ( 1.000000000000000000, 0.000000000000000000, 0.000000000000000000 ) ) ;
#5 = ADVANCED_FACE ( 'NONE', ( #113, #16 ), #116, .T. ) ;
#6 = CIRCLE ( 'NONE', #154, 7.000000000000000000 ) ;
#7 =( GEOMETRIC_REPRESENTATION_CONTEXT ( 3 ) GLOBAL_UNCERTAINTY_ASSIGNED_CONTEXT ( ( #71 ) ) GLOBAL_UNIT_ASSIGNED_CONTEXT ( ( #36, #188, #67 ) ) REPRESENTATION_CONTEXT ( 'NONE', 'WORKASPACE' ) );
#8 = FACE_OUTER_BOUND ( 'NONE', #61, .T. ) ;
#9 = EDGE_LOOP ( 'NONE', ( #246, #250 ) ) ;
#10 = MECHANICAL_CONTEXT ( 'NONE', #28, 'mechanical' ) ;
#11 = PRODUCT ( '1186', '1186', '', ( #10 ) ) ;
#12 = PERSON_AND_ORGANIZATION ( #214, #88 ) ;
#13 = FACE_OUTER_BOUND ( 'NONE', #107, .T. ) ;
#14 = EDGE_CURVE ( 'NONE', #74, #95, #6, .T. ) ;
#15 = VECTOR ( 'NONE', #228, 1000.000000000000000 ) ;
#16 = FACE_OUTER_BOUND ( 'NONE', #234, .T. ) ;
#17 = APPROVAL_DATE_TIME ( #35, #72 ) ;
#18 = EDGE_CURVE ( 'NONE', #138, #231, #180, .T. ) ;
#19 = CARTESIAN_POINT ( 'NONE',  ( -7.000000000000000000, 0.000000000000000000, 5.000000000000000000 ) ) ;
#20 = DIRECTION ( 'NONE',  ( 1.000000000000000000, 0.000000000000000000, -0.000000000000000000 ) ) ;
#21 = APPROVAL_STATUS ( 'not_yet_approved' ) ;
#22 = PERSON_AND_ORGANIZATION ( #214, #88 ) ;
#23 = PERSON_AND_ORGANIZATION ( #214, #88 ) ;
#24 = LOCAL_TIME ( 13, 51, 52.00000000000000000, #220 ) ;
#25 = EDGE_LOOP ( 'NONE', ( #172, #55 ) ) ;
#26 = EDGE_CURVE ( 'NONE', #138, #95, #83, .T. ) ;
#27 = APPROVAL_ROLE ( '' ) ;
#28 = APPLICATION_CONTEXT ( 'configuration controlled 3d designs of mechanical parts and assemblies' ) ;
#29 = ORIENTED_EDGE ( 'NONE', *, *, #169, .T. ) ;
#30 = CIRCLE ( 'NONE', #141, 7.000000000000000000 ) ;
#31 = APPROVAL_PERSON_ORGANIZATION ( #192, #100, #27 ) ;
#32 = APPROVAL_STATUS ( 'not_yet_approved' ) ;
#33 = CC_DESIGN_PERSON_AND_ORGANIZATION_ASSIGNMENT ( #157, #215, ( #205 ) ) ;
#34 = CARTESIAN_POINT ( 'NONE',  ( 4.250000000000000000, 5.204748896376249713E-16, 5.000000000000000000 ) ) ;
#35 = DATE_AND_TIME ( #226, #47 ) ;
#36 =( LENGTH_UNIT ( ) NAMED_UNIT ( * ) SI_UNIT ( .MILLI., .METRE. ) );
#37 = PERSON_AND_ORGANIZATION_ROLE ( 'classification_officer' ) ;
#38 = CC_DESIGN_SECURITY_CLASSIFICATION ( #103, ( #205 ) ) ;
#39 = FACE_OUTER_BOUND ( 'NONE', #132, .T. ) ;
#40 = DIRECTION ( 'NONE',  ( -0.000000000000000000, -0.000000000000000000, -1.000000000000000000 ) ) ;
#41 = CARTESIAN_POINT ( 'NONE',  ( 0.000000000000000000, 0.000000000000000000, 0.000000000000000000 ) ) ;
#42 = DIRECTION ( 'NONE',  ( 1.000000000000000000, 0.000000000000000000, 0.000000000000000000 ) ) ;
#43 = CIRCLE ( 'NONE', #119, 4.250000000000000000 ) ;
#44 = EDGE_CURVE ( 'NONE', #197, #59, #134, .T. ) ;
#45 = CARTESIAN_POINT ( 'NONE',  ( 0.000000000000000000, 0.000000000000000000, 5.000000000000000000 ) ) ;
#46 = CC_DESIGN_PERSON_AND_ORGANIZATION_ASSIGNMENT ( #198, #37, ( #103 ) ) ;
#47 = LOCAL_TIME ( 13, 51, 52.00000000000000000, #204 ) ;
#48 = ORIENTED_EDGE ( 'NONE', *, *, #179, .F. ) ;
#49 = CARTESIAN_POINT ( 'NONE',  ( 0.000000000000000000, 0.000000000000000000, 0.000000000000000000 ) ) ;
#50 = COORDINATED_UNIVERSAL_TIME_OFFSET ( 1, 0, .AHEAD. ) ;
#51 = DIRECTION ( 'NONE',  ( -0.000000000000000000, -0.000000000000000000, -1.000000000000000000 ) ) ;
#52 = CALENDAR_DATE ( 2023, 13, 2 ) ;
#53 = ADVANCED_FACE ( 'NONE', ( #137 ), #135, .F. ) ;
#54 = AXIS2_PLACEMENT_3D ( 'NONE', #183, #40, #255 ) ;
#55 = ORIENTED_EDGE ( 'NONE', *, *, #196, .F. ) ;
#56 = CARTESIAN_POINT ( 'NONE',  ( 0.000000000000000000, 0.000000000000000000, 5.000000000000000000 ) ) ;
#57 = PERSON_AND_ORGANIZATION_ROLE ( 'creator' ) ;
#58 = CARTESIAN_POINT ( 'NONE',  ( 0.000000000000000000, 0.000000000000000000, 5.000000000000000000 ) ) ;
#59 = VERTEX_POINT ( 'NONE', #199 ) ;
#60 = DIRECTION ( 'NONE',  ( 0.000000000000000000, 0.000000000000000000, 1.000000000000000000 ) ) ;
#61 = EDGE_LOOP ( 'NONE', ( #76, #108 ) ) ;
#62 = DIRECTION ( 'NONE',  ( -0.000000000000000000, -0.000000000000000000, -1.000000000000000000 ) ) ;
#63 = DIRECTION ( 'NONE',  ( 1.000000000000000000, 0.000000000000000000, 0.000000000000000000 ) ) ;
#64 = DIRECTION ( 'NONE',  ( 1.000000000000000000, 0.000000000000000000, 0.000000000000000000 ) ) ;
#65 = APPROVAL_ROLE ( '' ) ;
#66 = LINE ( 'NONE', #224, #15 ) ;
#67 =( NAMED_UNIT ( * ) SI_UNIT ( $, .STERADIAN. ) SOLID_ANGLE_UNIT ( ) );
#68 = DIRECTION ( 'NONE',  ( 0.000000000000000000, 0.000000000000000000, 1.000000000000000000 ) ) ;
#69 = ORIENTED_EDGE ( 'NONE', *, *, #26, .T. ) ;
#70 = PERSON_AND_ORGANIZATION ( #214, #88 ) ;
#71 = UNCERTAINTY_MEASURE_WITH_UNIT (LENGTH_MEASURE( 1.000000000000000082E-05 ), #36, 'distance_accuracy_value', 'NONE');
#72 = APPROVAL ( #32, 'NEURÈENÝ' ) ;
#73 = APPROVAL_DATE_TIME ( #175, #100 ) ;
#74 = VERTEX_POINT ( 'NONE', #87 ) ;
#75 = FACE_OUTER_BOUND ( 'NONE', #178, .T. ) ;
#76 = ORIENTED_EDGE ( 'NONE', *, *, #143, .T. ) ;
#77 = PRODUCT_DEFINITION_SHAPE ( 'NONE', 'NONE',  #82 ) ;
#78 = DIRECTION ( 'NONE',  ( -0.000000000000000000, -0.000000000000000000, -1.000000000000000000 ) ) ;
#79 = DIRECTION ( 'NONE',  ( 0.000000000000000000, 0.000000000000000000, 1.000000000000000000 ) ) ;
#80 = ORIENTED_EDGE ( 'NONE', *, *, #44, .T. ) ;
#81 = CC_DESIGN_APPROVAL ( #106, ( #103 ) ) ;
#82 = PRODUCT_DEFINITION ( 'NEZNÁMÝ', '', #205, #230 ) ;
#83 = LINE ( 'NONE', #168, #254 ) ;
#84 = SHAPE_DEFINITION_REPRESENTATION ( #77, #153 ) ;
#85 = CARTESIAN_POINT ( 'NONE',  ( 7.000000000000000000, 8.572527594031473190E-16, 5.000000000000000000 ) ) ;
#86 = AXIS2_PLACEMENT_3D ( 'NONE', #142, #60, #20 ) ;
#87 = CARTESIAN_POINT ( 'NONE',  ( -7.000000000000000000, 0.000000000000000000, 0.000000000000000000 ) ) ;
#88 = ORGANIZATION ( 'NEURÈENÝ', 'NEURÈENÝ', '' ) ;
#89 = ORIENTED_EDGE ( 'NONE', *, *, #26, .F. ) ;
#90 = ADVANCED_FACE ( 'NONE', ( #8 ), #104, .T. ) ;
#91 = PERSON_AND_ORGANIZATION_ROLE ( 'creator' ) ;
#92 = AXIS2_PLACEMENT_3D ( 'NONE', #121, #68, #173 ) ;
#93 = PERSON_AND_ORGANIZATION_ROLE ( 'design_owner' ) ;
#94 = APPROVAL_PERSON_ORGANIZATION ( #22, #72, #65 ) ;
#95 = VERTEX_POINT ( 'NONE', #206 ) ;
#96 = CARTESIAN_POINT ( 'NONE',  ( 0.000000000000000000, 0.000000000000000000, 0.000000000000000000 ) ) ;
#97 = CC_DESIGN_DATE_AND_TIME_ASSIGNMENT ( #201, #239, ( #103 ) ) ;
#98 = LOCAL_TIME ( 13, 51, 52.00000000000000000, #127 ) ;
#99 = DIRECTION ( 'NONE',  ( -0.000000000000000000, -0.000000000000000000, -1.000000000000000000 ) ) ;
#100 = APPROVAL ( #2, 'NEURÈENÝ' ) ;
#101 = AXIS2_PLACEMENT_3D ( 'NONE', #139, #99, #162 ) ;
#102 = DIRECTION ( 'NONE',  ( 1.000000000000000000, 0.000000000000000000, 0.000000000000000000 ) ) ;
#103 = SECURITY_CLASSIFICATION ( '', '', #136 ) ;
#104 = PLANE ( 'NONE',  #92 ) ;
#105 = CIRCLE ( 'NONE', #251, 4.250000000000000000 ) ;
#106 = APPROVAL ( #21, 'NEURÈENÝ' ) ;
#107 = EDGE_LOOP ( 'NONE', ( #89, #181, #152, #109 ) ) ;
#108 = ORIENTED_EDGE ( 'NONE', *, *, #160, .T. ) ;
#109 = ORIENTED_EDGE ( 'NONE', *, *, #14, .T. ) ;
#110 = DIRECTION ( 'NONE',  ( 0.000000000000000000, 0.000000000000000000, 1.000000000000000000 ) ) ;
#111 = PRODUCT_RELATED_PRODUCT_CATEGORY ( 'detail', '', ( #11 ) ) ;
#112 = COORDINATED_UNIVERSAL_TIME_OFFSET ( 1, 0, .AHEAD. ) ;
#113 = FACE_BOUND ( 'NONE', #9, .T. ) ;
#114 = DIRECTION ( 'NONE',  ( 1.000000000000000000, 0.000000000000000000, -0.000000000000000000 ) ) ;
#115 = DATE_AND_TIME ( #170, #24 ) ;
#116 = PLANE ( 'NONE',  #86 ) ;
#117 = DIRECTION ( 'NONE',  ( 0.000000000000000000, 0.000000000000000000, 1.000000000000000000 ) ) ;
#118 = DIRECTION ( 'NONE',  ( 0.000000000000000000, 0.000000000000000000, 1.000000000000000000 ) ) ;
#119 = AXIS2_PLACEMENT_3D ( 'NONE', #148, #242, #64 ) ;
#120 = CC_DESIGN_APPROVAL ( #72, ( #205 ) ) ;
#121 = CARTESIAN_POINT ( 'NONE',  ( 0.000000000000000000, 0.000000000000000000, 400.0000000000000000 ) ) ;
#122 = CC_DESIGN_PERSON_AND_ORGANIZATION_ASSIGNMENT ( #12, #93, ( #11 ) ) ;
#123 = AXIS2_PLACEMENT_3D ( 'NONE', #185, #171, #243 ) ;
#124 = ORIENTED_EDGE ( 'NONE', *, *, #196, .T. ) ;
#125 = AXIS2_PLACEMENT_3D ( 'NONE', #156, #78, #236 ) ;
#126 = VERTEX_POINT ( 'NONE', #187 ) ;
#127 = COORDINATED_UNIVERSAL_TIME_OFFSET ( 1, 0, .AHEAD. ) ;
#128 = MANIFOLD_SOLID_BREP ( 'Pøidat vysunutím3', #200 ) ;
#129 = DIRECTION ( 'NONE',  ( 0.000000000000000000, 0.000000000000000000, 1.000000000000000000 ) ) ;
#130 = DATE_TIME_ROLE ( 'creation_date' ) ;
#131 = EDGE_CURVE ( 'NONE', #59, #197, #105, .T. ) ;
#132 = EDGE_LOOP ( 'NONE', ( #229, #69, #124, #48 ) ) ;
#133 = CARTESIAN_POINT ( 'NONE',  ( -7.000000000000000000, 0.000000000000000000, 5.000000000000000000 ) ) ;
#134 = CIRCLE ( 'NONE', #161, 4.250000000000000000 ) ;
#135 = PLANE ( 'NONE',  #223 ) ;
#136 = SECURITY_CLASSIFICATION_LEVEL ( 'unclassified' ) ;
#137 = FACE_OUTER_BOUND ( 'NONE', #25, .T. ) ;
#138 = VERTEX_POINT ( 'NONE', #85 ) ;
#139 = CARTESIAN_POINT ( 'NONE',  ( 0.000000000000000000, 0.000000000000000000, 5.000000000000000000 ) ) ;
#140 = FACE_OUTER_BOUND ( 'NONE', #155, .T. ) ;
#141 = AXIS2_PLACEMENT_3D ( 'NONE', #203, #222, #146 ) ;
#142 = CARTESIAN_POINT ( 'NONE',  ( 0.000000000000000000, 0.000000000000000000, 5.000000000000000000 ) ) ;
#143 = EDGE_CURVE ( 'NONE', #126, #176, #43, .T. ) ;
#144 = APPROVAL_DATE_TIME ( #115, #106 ) ;
#145 = EDGE_CURVE ( 'NONE', #231, #138, #30, .T. ) ;
#146 = DIRECTION ( 'NONE',  ( 1.000000000000000000, 0.000000000000000000, 0.000000000000000000 ) ) ;
#147 = ORIENTED_EDGE ( 'NONE', *, *, #247, .F. ) ;
#148 = CARTESIAN_POINT ( 'NONE',  ( 0.000000000000000000, 0.000000000000000000, 400.0000000000000000 ) ) ;
#149 = CC_DESIGN_DATE_AND_TIME_ASSIGNMENT ( #249, #130, ( #82 ) ) ;
#150 = VECTOR ( 'NONE', #62, 1000.000000000000000 ) ;
#151 = DIRECTION ( 'NONE',  ( 1.000000000000000000, 0.000000000000000000, 0.000000000000000000 ) ) ;
#152 = ORIENTED_EDGE ( 'NONE', *, *, #179, .T. ) ;
#153 = ADVANCED_BREP_SHAPE_REPRESENTATION ( '1186', ( #128, #165 ), #7 ) ;
#154 = AXIS2_PLACEMENT_3D ( 'NONE', #41, #79, #63 ) ;
#155 = EDGE_LOOP ( 'NONE', ( #147, #225, #29, #209 ) ) ;
#156 = CARTESIAN_POINT ( 'NONE',  ( 0.000000000000000000, 0.000000000000000000, 400.0000000000000000 ) ) ;
#157 = PERSON_AND_ORGANIZATION ( #214, #88 ) ;
#158 = LOCAL_TIME ( 13, 51, 52.00000000000000000, #50 ) ;
#159 = DIRECTION ( 'NONE',  ( 0.000000000000000000, 0.000000000000000000, 1.000000000000000000 ) ) ;
#160 = EDGE_CURVE ( 'NONE', #176, #126, #182, .T. ) ;
#161 = AXIS2_PLACEMENT_3D ( 'NONE', #58, #159, #42 ) ;
#162 = DIRECTION ( 'NONE',  ( -1.000000000000000000, 0.000000000000000000, 0.000000000000000000 ) ) ;
#163 = PERSON_AND_ORGANIZATION ( #214, #88 ) ;
#164 = CARTESIAN_POINT ( 'NONE',  ( 0.000000000000000000, 0.000000000000000000, 5.000000000000000000 ) ) ;
#165 = AXIS2_PLACEMENT_3D ( 'NONE', #49, #110, #191 ) ;
#166 = LINE ( 'NONE', #216, #150 ) ;
#167 = CALENDAR_DATE ( 2023, 13, 2 ) ;
#168 = CARTESIAN_POINT ( 'NONE',  ( 7.000000000000000000, 8.572527594031473190E-16, 5.000000000000000000 ) ) ;
#169 = EDGE_CURVE ( 'NONE', #126, #59, #66, .T. ) ;
#170 = CALENDAR_DATE ( 2023, 13, 2 ) ;
#171 = DIRECTION ( 'NONE',  ( 0.000000000000000000, 0.000000000000000000, 1.000000000000000000 ) ) ;
#172 = ORIENTED_EDGE ( 'NONE', *, *, #14, .F. ) ;
#173 = DIRECTION ( 'NONE',  ( 1.000000000000000000, 0.000000000000000000, -0.000000000000000000 ) ) ;
#174 = ORIENTED_EDGE ( 'NONE', *, *, #169, .F. ) ;
#175 = DATE_AND_TIME ( #186, #98 ) ;
#176 = VERTEX_POINT ( 'NONE', #195 ) ;
#177 = APPLICATION_PROTOCOL_DEFINITION ( 'international standard', 'config_control_design', 1994, #238 ) ;
#178 = EDGE_LOOP ( 'NONE', ( #193, #227, #80, #174 ) ) ;
#179 = EDGE_CURVE ( 'NONE', #231, #74, #252, .T. ) ;
#180 = CIRCLE ( 'NONE', #217, 7.000000000000000000 ) ;
#181 = ORIENTED_EDGE ( 'NONE', *, *, #145, .F. ) ;
#182 = CIRCLE ( 'NONE', #123, 4.250000000000000000 ) ;
#183 = CARTESIAN_POINT ( 'NONE',  ( 0.000000000000000000, 0.000000000000000000, 400.0000000000000000 ) ) ;
#184 = LOCAL_TIME ( 13, 51, 52.00000000000000000, #112 ) ;
#185 = CARTESIAN_POINT ( 'NONE',  ( 0.000000000000000000, 0.000000000000000000, 400.0000000000000000 ) ) ;
#186 = CALENDAR_DATE ( 2023, 13, 2 ) ;
#187 = CARTESIAN_POINT ( 'NONE',  ( -4.250000000000000000, 0.000000000000000000, 400.0000000000000000 ) ) ;
#188 =( NAMED_UNIT ( * ) PLANE_ANGLE_UNIT ( ) SI_UNIT ( $, .RADIAN. ) );
#189 = ADVANCED_FACE ( 'NONE', ( #13 ), #235, .T. ) ;
#190 = APPLICATION_PROTOCOL_DEFINITION ( 'international standard', 'config_control_design', 1994, #28 ) ;
#191 = DIRECTION ( 'NONE',  ( 1.000000000000000000, 0.000000000000000000, 0.000000000000000000 ) ) ;
#192 = PERSON_AND_ORGANIZATION ( #214, #88 ) ;
#193 = ORIENTED_EDGE ( 'NONE', *, *, #160, .F. ) ;
#194 = CIRCLE ( 'NONE', #237, 7.000000000000000000 ) ;
#195 = CARTESIAN_POINT ( 'NONE',  ( 4.250000000000000000, 5.204748896376249713E-16, 400.0000000000000000 ) ) ;
#196 = EDGE_CURVE ( 'NONE', #95, #74, #194, .T. ) ;
#197 = VERTEX_POINT ( 'NONE', #34 ) ;
#198 = PERSON_AND_ORGANIZATION ( #214, #88 ) ;
#199 = CARTESIAN_POINT ( 'NONE',  ( -4.250000000000000000, 0.000000000000000000, 5.000000000000000000 ) ) ;
#200 = CLOSED_SHELL ( 'NONE', ( #202, #207, #189, #5, #53, #244, #90 ) ) ;
#201 = DATE_AND_TIME ( #167, #184 ) ;
#202 = ADVANCED_FACE ( 'NONE', ( #75 ), #210, .T. ) ;
#203 = CARTESIAN_POINT ( 'NONE',  ( 0.000000000000000000, 0.000000000000000000, 5.000000000000000000 ) ) ;
#204 = COORDINATED_UNIVERSAL_TIME_OFFSET ( 1, 0, .AHEAD. ) ;
#205 = PRODUCT_DEFINITION_FORMATION_WITH_SPECIFIED_SOURCE ( 'LIBOVOLNÝ', '', #11, .NOT_KNOWN. ) ;
#206 = CARTESIAN_POINT ( 'NONE',  ( 7.000000000000000000, 8.572527594031473190E-16, 0.000000000000000000 ) ) ;
#207 = ADVANCED_FACE ( 'NONE', ( #39 ), #253, .T. ) ;
#208 = ORIENTED_EDGE ( 'NONE', *, *, #145, .T. ) ;
#209 = ORIENTED_EDGE ( 'NONE', *, *, #131, .T. ) ;
#210 = CYLINDRICAL_SURFACE ( 'NONE', #125, 4.250000000000000000 ) ;
#211 = VECTOR ( 'NONE', #248, 1000.000000000000000 ) ;
#212 = CC_DESIGN_PERSON_AND_ORGANIZATION_ASSIGNMENT ( #163, #57, ( #205 ) ) ;
#213 = CARTESIAN_POINT ( 'NONE',  ( 0.000000000000000000, 0.000000000000000000, 0.000000000000000000 ) ) ;
#214 = PERSON ( 'NEURÈENÝ', 'NEURÈENÝ', 'NEURÈENÝ', ('NEURÈENÝ'), ('NEURÈENÝ'), ('NEURÈENÝ') ) ;
#215 = PERSON_AND_ORGANIZATION_ROLE ( 'design_supplier' ) ;
#216 = CARTESIAN_POINT ( 'NONE',  ( 4.250000000000000000, 5.204748896376249713E-16, 400.0000000000000000 ) ) ;
#217 = AXIS2_PLACEMENT_3D ( 'NONE', #164, #1, #102 ) ;
#218 = CYLINDRICAL_SURFACE ( 'NONE', #54, 4.250000000000000000 ) ;
#219 = AXIS2_PLACEMENT_3D ( 'NONE', #56, #51, #232 ) ;
#220 = COORDINATED_UNIVERSAL_TIME_OFFSET ( 1, 0, .AHEAD. ) ;
#221 = DIRECTION ( 'NONE',  ( -0.000000000000000000, -0.000000000000000000, -1.000000000000000000 ) ) ;
#222 = DIRECTION ( 'NONE',  ( 0.000000000000000000, 0.000000000000000000, 1.000000000000000000 ) ) ;
#223 = AXIS2_PLACEMENT_3D ( 'NONE', #213, #117, #114 ) ;
#224 = CARTESIAN_POINT ( 'NONE',  ( -4.250000000000000000, 0.000000000000000000, 400.0000000000000000 ) ) ;
#225 = ORIENTED_EDGE ( 'NONE', *, *, #143, .F. ) ;
#226 = CALENDAR_DATE ( 2023, 13, 2 ) ;
#227 = ORIENTED_EDGE ( 'NONE', *, *, #247, .T. ) ;
#228 = DIRECTION ( 'NONE',  ( -0.000000000000000000, -0.000000000000000000, -1.000000000000000000 ) ) ;
#229 = ORIENTED_EDGE ( 'NONE', *, *, #18, .F. ) ;
#230 = DESIGN_CONTEXT ( 'detailed design', #238, 'design' ) ;
#231 = VERTEX_POINT ( 'NONE', #19 ) ;
#232 = DIRECTION ( 'NONE',  ( -1.000000000000000000, 0.000000000000000000, 0.000000000000000000 ) ) ;
#233 = CC_DESIGN_APPROVAL ( #100, ( #82 ) ) ;
#234 = EDGE_LOOP ( 'NONE', ( #208, #245 ) ) ;
#235 = CYLINDRICAL_SURFACE ( 'NONE', #219, 7.000000000000000000 ) ;
#236 = DIRECTION ( 'NONE',  ( -1.000000000000000000, 0.000000000000000000, 0.000000000000000000 ) ) ;
#237 = AXIS2_PLACEMENT_3D ( 'NONE', #96, #129, #151 ) ;
#238 = APPLICATION_CONTEXT ( 'configuration controlled 3d designs of mechanical parts and assemblies' ) ;
#239 = DATE_TIME_ROLE ( 'classification_date' ) ;
#240 = APPROVAL_PERSON_ORGANIZATION ( #23, #106, #3 ) ;
#241 = CC_DESIGN_PERSON_AND_ORGANIZATION_ASSIGNMENT ( #70, #91, ( #82 ) ) ;
#242 = DIRECTION ( 'NONE',  ( 0.000000000000000000, 0.000000000000000000, 1.000000000000000000 ) ) ;
#243 = DIRECTION ( 'NONE',  ( 1.000000000000000000, 0.000000000000000000, 0.000000000000000000 ) ) ;
#244 = ADVANCED_FACE ( 'NONE', ( #140 ), #218, .T. ) ;
#245 = ORIENTED_EDGE ( 'NONE', *, *, #18, .T. ) ;
#246 = ORIENTED_EDGE ( 'NONE', *, *, #131, .F. ) ;
#247 = EDGE_CURVE ( 'NONE', #176, #197, #166, .T. ) ;
#248 = DIRECTION ( 'NONE',  ( -0.000000000000000000, -0.000000000000000000, -1.000000000000000000 ) ) ;
#249 = DATE_AND_TIME ( #52, #158 ) ;
#250 = ORIENTED_EDGE ( 'NONE', *, *, #44, .F. ) ;
#251 = AXIS2_PLACEMENT_3D ( 'NONE', #45, #118, #4 ) ;
#252 = LINE ( 'NONE', #133, #211 ) ;
#253 = CYLINDRICAL_SURFACE ( 'NONE', #101, 7.000000000000000000 ) ;
#254 = VECTOR ( 'NONE', #221, 1000.000000000000000 ) ;
#255 = DIRECTION ( 'NONE',  ( -1.000000000000000000, 0.000000000000000000, 0.000000000000000000 ) ) ;
ENDSEC;
END-ISO-10303-21;
