ISO-10303-21;
HEADER;
FILE_DESCRIPTION (( 'STEP AP203' ),
    '1' );
FILE_NAME ('759c.STEP',
    '2023-02-13T13:34:29',
    ( '' ),
    ( '' ),
    'SwSTEP 2.0',
    'SolidWorks 2019',
    '' );
FILE_SCHEMA (( 'CONFIG_CONTROL_DESIGN' ));
ENDSEC;

DATA;
#1 = DIRECTION ( 'NONE',  ( 1.000000000000000000, 0.000000000000000000, 0.000000000000000000 ) ) ;
#2 = FACE_OUTER_BOUND ( 'NONE', #90, .T. ) ;
#3 = CIRCLE ( 'NONE', #137, 6.000000000000000888 ) ;
#4 = CARTESIAN_POINT ( 'NONE',  ( 0.000000000000000000, 0.000000000000000000, 250.0000000000000000 ) ) ;
#5 = CARTESIAN_POINT ( 'NONE',  ( 6.000000000000000888, 7.347880794884120722E-16, 0.000000000000000000 ) ) ;
#6 = VERTEX_POINT ( 'NONE', #32 ) ;
#7 = PRODUCT_DEFINITION_FORMATION_WITH_SPECIFIED_SOURCE ( 'LIBOVOLNÝ', '', #62, .NOT_KNOWN. ) ;
#8 = EDGE_CURVE ( 'NONE', #6, #80, #127, .T. ) ;
#9 = AXIS2_PLACEMENT_3D ( 'NONE', #245, #55, #228 ) ;
#10 = APPROVAL_ROLE ( '' ) ;
#11 = CALENDAR_DATE ( 2023, 13, 2 ) ;
#12 = COORDINATED_UNIVERSAL_TIME_OFFSET ( 1, 0, .AHEAD. ) ;
#13 = CIRCLE ( 'NONE', #94, 3.750000000000000000 ) ;
#14 = PERSON_AND_ORGANIZATION ( #31, #35 ) ;
#15 = DATE_AND_TIME ( #113, #51 ) ;
#16 = CARTESIAN_POINT ( 'NONE',  ( 0.000000000000000000, 0.000000000000000000, 5.000000000000000000 ) ) ;
#17 = DESIGN_CONTEXT ( 'detailed design', #208, 'design' ) ;
#18 = EDGE_LOOP ( 'NONE', ( #102, #155 ) ) ;
#19 = EDGE_LOOP ( 'NONE', ( #134, #136 ) ) ;
#20 =( LENGTH_UNIT ( ) NAMED_UNIT ( * ) SI_UNIT ( .MILLI., .METRE. ) );
#21 = CARTESIAN_POINT ( 'NONE',  ( 0.000000000000000000, 0.000000000000000000, 250.0000000000000000 ) ) ;
#22 = PLANE ( 'NONE',  #163 ) ;
#23 = VECTOR ( 'NONE', #125, 1000.000000000000000 ) ;
#24 = CARTESIAN_POINT ( 'NONE',  ( 0.000000000000000000, 0.000000000000000000, 0.000000000000000000 ) ) ;
#25 = DIRECTION ( 'NONE',  ( -0.000000000000000000, -0.000000000000000000, -1.000000000000000000 ) ) ;
#26 = LINE ( 'NONE', #161, #72 ) ;
#27 = DIRECTION ( 'NONE',  ( -0.000000000000000000, -0.000000000000000000, -1.000000000000000000 ) ) ;
#28 = EDGE_CURVE ( 'NONE', #188, #115, #218, .T. ) ;
#29 = ADVANCED_FACE ( 'NONE', ( #2 ), #120, .T. ) ;
#30 = PERSON_AND_ORGANIZATION_ROLE ( 'creator' ) ;
#31 = PERSON ( 'NEURÈENÝ', 'NEURÈENÝ', 'NEURÈENÝ', ('NEURÈENÝ'), ('NEURÈENÝ'), ('NEURÈENÝ') ) ;
#32 = CARTESIAN_POINT ( 'NONE',  ( -3.750000000000000000, 0.000000000000000000, 5.000000000000000000 ) ) ;
#33 = ORIENTED_EDGE ( 'NONE', *, *, #38, .T. ) ;
#34 = DIRECTION ( 'NONE',  ( 0.000000000000000000, 0.000000000000000000, 1.000000000000000000 ) ) ;
#35 = ORGANIZATION ( 'NEURÈENÝ', 'NEURÈENÝ', '' ) ;
#36 = CARTESIAN_POINT ( 'NONE',  ( 3.750000000000000000, 4.592425496802573972E-16, 250.0000000000000000 ) ) ;
#37 = DIRECTION ( 'NONE',  ( -0.000000000000000000, -0.000000000000000000, -1.000000000000000000 ) ) ;
#38 = EDGE_CURVE ( 'NONE', #115, #188, #83, .T. ) ;
#39 = AXIS2_PLACEMENT_3D ( 'NONE', #92, #34, #47 ) ;
#40 = CARTESIAN_POINT ( 'NONE',  ( 6.000000000000000888, 7.347880794884120722E-16, 5.000000000000000000 ) ) ;
#41 = FACE_OUTER_BOUND ( 'NONE', #50, .T. ) ;
#42 = ORIENTED_EDGE ( 'NONE', *, *, #38, .F. ) ;
#43 = PERSON_AND_ORGANIZATION ( #31, #35 ) ;
#44 = APPROVAL_STATUS ( 'not_yet_approved' ) ;
#45 = APPROVAL_PERSON_ORGANIZATION ( #197, #116, #10 ) ;
#46 = DIRECTION ( 'NONE',  ( 1.000000000000000000, 0.000000000000000000, 0.000000000000000000 ) ) ;
#47 = DIRECTION ( 'NONE',  ( 1.000000000000000000, 0.000000000000000000, 0.000000000000000000 ) ) ;
#48 = APPLICATION_CONTEXT ( 'configuration controlled 3d designs of mechanical parts and assemblies' ) ;
#49 = AXIS2_PLACEMENT_3D ( 'NONE', #21, #178, #122 ) ;
#50 = EDGE_LOOP ( 'NONE', ( #240, #42, #198, #248 ) ) ;
#51 = LOCAL_TIME ( 14, 34, 29.00000000000000000, #133 ) ;
#52 = EDGE_LOOP ( 'NONE', ( #243, #223 ) ) ;
#53 = CC_DESIGN_DATE_AND_TIME_ASSIGNMENT ( #15, #165, ( #173 ) ) ;
#54 = EDGE_LOOP ( 'NONE', ( #95, #153, #174, #162 ) ) ;
#55 = DIRECTION ( 'NONE',  ( -0.000000000000000000, -0.000000000000000000, -1.000000000000000000 ) ) ;
#56 = CARTESIAN_POINT ( 'NONE',  ( 0.000000000000000000, 0.000000000000000000, 0.000000000000000000 ) ) ;
#57 = ADVANCED_FACE ( 'NONE', ( #118 ), #201, .T. ) ;
#58 = EDGE_LOOP ( 'NONE', ( #74, #203, #254, #239 ) ) ;
#59 = CARTESIAN_POINT ( 'NONE',  ( 0.000000000000000000, 0.000000000000000000, 5.000000000000000000 ) ) ;
#60 = DIRECTION ( 'NONE',  ( -0.000000000000000000, -0.000000000000000000, -1.000000000000000000 ) ) ;
#61 = AXIS2_PLACEMENT_3D ( 'NONE', #16, #139, #1 ) ;
#62 = PRODUCT ( '759c', '759c', '', ( #91 ) ) ;
#63 = DATE_AND_TIME ( #172, #105 ) ;
#64 = CC_DESIGN_PERSON_AND_ORGANIZATION_ASSIGNMENT ( #251, #30, ( #7 ) ) ;
#65 = PERSON_AND_ORGANIZATION_ROLE ( 'classification_officer' ) ;
#66 = APPROVAL_DATE_TIME ( #63, #159 ) ;
#67 = AXIS2_PLACEMENT_3D ( 'NONE', #70, #117, #227 ) ;
#68 = APPROVAL_PERSON_ORGANIZATION ( #14, #255, #191 ) ;
#69 = CARTESIAN_POINT ( 'NONE',  ( 0.000000000000000000, 0.000000000000000000, 0.000000000000000000 ) ) ;
#70 = CARTESIAN_POINT ( 'NONE',  ( 0.000000000000000000, 0.000000000000000000, 5.000000000000000000 ) ) ;
#71 = FACE_BOUND ( 'NONE', #18, .T. ) ;
#72 = VECTOR ( 'NONE', #27, 1000.000000000000000 ) ;
#73 = LOCAL_TIME ( 14, 34, 29.00000000000000000, #236 ) ;
#74 = ORIENTED_EDGE ( 'NONE', *, *, #28, .F. ) ;
#75 = FACE_OUTER_BOUND ( 'NONE', #58, .T. ) ;
#76 = CC_DESIGN_APPROVAL ( #255, ( #210 ) ) ;
#77 = DIRECTION ( 'NONE',  ( 0.000000000000000000, 0.000000000000000000, 1.000000000000000000 ) ) ;
#78 = CARTESIAN_POINT ( 'NONE',  ( -6.000000000000000888, 0.000000000000000000, 5.000000000000000000 ) ) ;
#79 = ADVANCED_FACE ( 'NONE', ( #71, #204 ), #22, .T. ) ;
#80 = VERTEX_POINT ( 'NONE', #179 ) ;
#81 = PLANE ( 'NONE',  #232 ) ;
#82 = EDGE_CURVE ( 'NONE', #238, #150, #195, .T. ) ;
#83 = CIRCLE ( 'NONE', #67, 6.000000000000000888 ) ;
#84 = APPLICATION_PROTOCOL_DEFINITION ( 'international standard', 'config_control_design', 1994, #208 ) ;
#85 = PERSON_AND_ORGANIZATION ( #31, #35 ) ;
#86 = CC_DESIGN_PERSON_AND_ORGANIZATION_ASSIGNMENT ( #111, #65, ( #210 ) ) ;
#87 = PERSON_AND_ORGANIZATION ( #31, #35 ) ;
#88 = CYLINDRICAL_SURFACE ( 'NONE', #171, 3.750000000000000000 ) ;
#89 = CARTESIAN_POINT ( 'NONE',  ( 0.000000000000000000, 0.000000000000000000, 5.000000000000000000 ) ) ;
#90 = EDGE_LOOP ( 'NONE', ( #140, #106, #128, #138 ) ) ;
#91 = MECHANICAL_CONTEXT ( 'NONE', #48, 'mechanical' ) ;
#92 = CARTESIAN_POINT ( 'NONE',  ( 0.000000000000000000, 0.000000000000000000, 5.000000000000000000 ) ) ;
#93 = DIRECTION ( 'NONE',  ( -0.000000000000000000, -0.000000000000000000, -1.000000000000000000 ) ) ;
#94 = AXIS2_PLACEMENT_3D ( 'NONE', #59, #229, #211 ) ;
#95 = ORIENTED_EDGE ( 'NONE', *, *, #82, .F. ) ;
#96 = CC_DESIGN_APPROVAL ( #116, ( #173 ) ) ;
#97 = DIRECTION ( 'NONE',  ( 0.000000000000000000, 0.000000000000000000, 1.000000000000000000 ) ) ;
#98 = ADVANCED_BREP_SHAPE_REPRESENTATION ( '759c', ( #231, #164 ), #216 ) ;
#99 = EDGE_CURVE ( 'NONE', #80, #6, #13, .T. ) ;
#100 = DIRECTION ( 'NONE',  ( -1.000000000000000000, 0.000000000000000000, 0.000000000000000000 ) ) ;
#101 = EDGE_CURVE ( 'NONE', #115, #175, #185, .T. ) ;
#102 = ORIENTED_EDGE ( 'NONE', *, *, #8, .F. ) ;
#103 = CC_DESIGN_PERSON_AND_ORGANIZATION_ASSIGNMENT ( #104, #108, ( #173 ) ) ;
#104 = PERSON_AND_ORGANIZATION ( #31, #35 ) ;
#105 = LOCAL_TIME ( 14, 34, 29.00000000000000000, #250 ) ;
#106 = ORIENTED_EDGE ( 'NONE', *, *, #148, .F. ) ;
#107 = EDGE_CURVE ( 'NONE', #150, #6, #26, .T. ) ;
#108 = PERSON_AND_ORGANIZATION_ROLE ( 'creator' ) ;
#109 = CARTESIAN_POINT ( 'NONE',  ( 3.750000000000000000, 4.592425496802573972E-16, 250.0000000000000000 ) ) ;
#110 = PRODUCT_DEFINITION_SHAPE ( 'NONE', 'NONE',  #173 ) ;
#111 = PERSON_AND_ORGANIZATION ( #31, #35 ) ;
#112 = APPROVAL_STATUS ( 'not_yet_approved' ) ;
#113 = CALENDAR_DATE ( 2023, 13, 2 ) ;
#114 = LINE ( 'NONE', #36, #224 ) ;
#115 = VERTEX_POINT ( 'NONE', #247 ) ;
#116 = APPROVAL ( #253, 'NEURÈENÝ' ) ;
#117 = DIRECTION ( 'NONE',  ( 0.000000000000000000, 0.000000000000000000, 1.000000000000000000 ) ) ;
#118 = FACE_OUTER_BOUND ( 'NONE', #19, .T. ) ;
#119 = DIRECTION ( 'NONE',  ( 0.000000000000000000, 0.000000000000000000, 1.000000000000000000 ) ) ;
#120 = CYLINDRICAL_SURFACE ( 'NONE', #170, 3.750000000000000000 ) ;
#121 = CC_DESIGN_DATE_AND_TIME_ASSIGNMENT ( #135, #214, ( #210 ) ) ;
#122 = DIRECTION ( 'NONE',  ( 1.000000000000000000, 0.000000000000000000, -0.000000000000000000 ) ) ;
#123 = DIRECTION ( 'NONE',  ( 0.000000000000000000, 0.000000000000000000, 1.000000000000000000 ) ) ;
#124 = EDGE_CURVE ( 'NONE', #188, #177, #146, .T. ) ;
#125 = DIRECTION ( 'NONE',  ( -0.000000000000000000, -0.000000000000000000, -1.000000000000000000 ) ) ;
#126 = CYLINDRICAL_SURFACE ( 'NONE', #246, 6.000000000000000888 ) ;
#127 = CIRCLE ( 'NONE', #61, 3.750000000000000000 ) ;
#128 = ORIENTED_EDGE ( 'NONE', *, *, #107, .T. ) ;
#129 = DIRECTION ( 'NONE',  ( 0.000000000000000000, 0.000000000000000000, 1.000000000000000000 ) ) ;
#130 = PERSON_AND_ORGANIZATION_ROLE ( 'design_supplier' ) ;
#131 = EDGE_LOOP ( 'NONE', ( #33, #141 ) ) ;
#132 = DATE_AND_TIME ( #220, #233 ) ;
#133 = COORDINATED_UNIVERSAL_TIME_OFFSET ( 1, 0, .AHEAD. ) ;
#134 = ORIENTED_EDGE ( 'NONE', *, *, #148, .T. ) ;
#135 = DATE_AND_TIME ( #194, #200 ) ;
#136 = ORIENTED_EDGE ( 'NONE', *, *, #82, .T. ) ;
#137 = AXIS2_PLACEMENT_3D ( 'NONE', #24, #97, #144 ) ;
#138 = ORIENTED_EDGE ( 'NONE', *, *, #8, .T. ) ;
#139 = DIRECTION ( 'NONE',  ( 0.000000000000000000, 0.000000000000000000, 1.000000000000000000 ) ) ;
#140 = ORIENTED_EDGE ( 'NONE', *, *, #244, .F. ) ;
#141 = ORIENTED_EDGE ( 'NONE', *, *, #28, .T. ) ;
#142 = FACE_OUTER_BOUND ( 'NONE', #52, .T. ) ;
#143 = APPROVAL_PERSON_ORGANIZATION ( #43, #159, #166 ) ;
#144 = DIRECTION ( 'NONE',  ( 1.000000000000000000, 0.000000000000000000, 0.000000000000000000 ) ) ;
#145 = PRODUCT_RELATED_PRODUCT_CATEGORY ( 'detail', '', ( #62 ) ) ;
#146 = LINE ( 'NONE', #147, #23 ) ;
#147 = CARTESIAN_POINT ( 'NONE',  ( 6.000000000000000888, 7.347880794884120722E-16, 5.000000000000000000 ) ) ;
#148 = EDGE_CURVE ( 'NONE', #150, #238, #205, .T. ) ;
#149 = APPROVAL_DATE_TIME ( #132, #255 ) ;
#150 = VERTEX_POINT ( 'NONE', #189 ) ;
#151 = DIRECTION ( 'NONE',  ( -0.000000000000000000, -0.000000000000000000, -1.000000000000000000 ) ) ;
#152 =( NAMED_UNIT ( * ) PLANE_ANGLE_UNIT ( ) SI_UNIT ( $, .RADIAN. ) );
#153 = ORIENTED_EDGE ( 'NONE', *, *, #244, .T. ) ;
#154 = ADVANCED_FACE ( 'NONE', ( #142 ), #81, .F. ) ;
#155 = ORIENTED_EDGE ( 'NONE', *, *, #99, .F. ) ;
#156 = DIRECTION ( 'NONE',  ( 1.000000000000000000, 0.000000000000000000, -0.000000000000000000 ) ) ;
#157 = AXIS2_PLACEMENT_3D ( 'NONE', #187, #77, #215 ) ;
#158 = DIRECTION ( 'NONE',  ( 0.000000000000000000, 0.000000000000000000, 1.000000000000000000 ) ) ;
#159 = APPROVAL ( #112, 'NEURÈENÝ' ) ;
#160 = CYLINDRICAL_SURFACE ( 'NONE', #9, 6.000000000000000888 ) ;
#161 = CARTESIAN_POINT ( 'NONE',  ( -3.750000000000000000, 0.000000000000000000, 250.0000000000000000 ) ) ;
#162 = ORIENTED_EDGE ( 'NONE', *, *, #107, .F. ) ;
#163 = AXIS2_PLACEMENT_3D ( 'NONE', #89, #225, #156 ) ;
#164 = AXIS2_PLACEMENT_3D ( 'NONE', #69, #119, #46 ) ;
#165 = DATE_TIME_ROLE ( 'creation_date' ) ;
#166 = APPROVAL_ROLE ( '' ) ;
#167 = EDGE_CURVE ( 'NONE', #177, #175, #3, .T. ) ;
#168 = FACE_OUTER_BOUND ( 'NONE', #54, .T. ) ;
#169 = PERSON_AND_ORGANIZATION_ROLE ( 'design_owner' ) ;
#170 = AXIS2_PLACEMENT_3D ( 'NONE', #199, #37, #183 ) ;
#171 = AXIS2_PLACEMENT_3D ( 'NONE', #222, #93, #182 ) ;
#172 = CALENDAR_DATE ( 2023, 13, 2 ) ;
#173 = PRODUCT_DEFINITION ( 'NEZNÁMÝ', '', #7, #17 ) ;
#174 = ORIENTED_EDGE ( 'NONE', *, *, #99, .T. ) ;
#175 = VERTEX_POINT ( 'NONE', #184 ) ;
#176 = UNCERTAINTY_MEASURE_WITH_UNIT (LENGTH_MEASURE( 1.000000000000000082E-05 ), #20, 'distance_accuracy_value', 'NONE');
#177 = VERTEX_POINT ( 'NONE', #5 ) ;
#178 = DIRECTION ( 'NONE',  ( 0.000000000000000000, 0.000000000000000000, 1.000000000000000000 ) ) ;
#179 = CARTESIAN_POINT ( 'NONE',  ( 3.750000000000000000, 4.592425496802573972E-16, 5.000000000000000000 ) ) ;
#180 = ADVANCED_FACE ( 'NONE', ( #75 ), #160, .T. ) ;
#181 = CLOSED_SHELL ( 'NONE', ( #241, #180, #213, #79, #154, #29, #57 ) ) ;
#182 = DIRECTION ( 'NONE',  ( -1.000000000000000000, 0.000000000000000000, 0.000000000000000000 ) ) ;
#183 = DIRECTION ( 'NONE',  ( -1.000000000000000000, 0.000000000000000000, 0.000000000000000000 ) ) ;
#184 = CARTESIAN_POINT ( 'NONE',  ( -6.000000000000000888, 0.000000000000000000, 0.000000000000000000 ) ) ;
#185 = LINE ( 'NONE', #78, #249 ) ;
#186 = CC_DESIGN_APPROVAL ( #159, ( #7 ) ) ;
#187 = CARTESIAN_POINT ( 'NONE',  ( 0.000000000000000000, 0.000000000000000000, 0.000000000000000000 ) ) ;
#188 = VERTEX_POINT ( 'NONE', #40 ) ;
#189 = CARTESIAN_POINT ( 'NONE',  ( -3.750000000000000000, 0.000000000000000000, 250.0000000000000000 ) ) ;
#190 = CC_DESIGN_SECURITY_CLASSIFICATION ( #210, ( #7 ) ) ;
#191 = APPROVAL_ROLE ( '' ) ;
#192 = CC_DESIGN_PERSON_AND_ORGANIZATION_ASSIGNMENT ( #85, #130, ( #7 ) ) ;
#193 = SHAPE_DEFINITION_REPRESENTATION ( #110, #98 ) ;
#194 = CALENDAR_DATE ( 2023, 13, 2 ) ;
#195 = CIRCLE ( 'NONE', #209, 3.750000000000000000 ) ;
#196 = SECURITY_CLASSIFICATION_LEVEL ( 'unclassified' ) ;
#197 = PERSON_AND_ORGANIZATION ( #31, #35 ) ;
#198 = ORIENTED_EDGE ( 'NONE', *, *, #101, .T. ) ;
#199 = CARTESIAN_POINT ( 'NONE',  ( 0.000000000000000000, 0.000000000000000000, 250.0000000000000000 ) ) ;
#200 = LOCAL_TIME ( 14, 34, 29.00000000000000000, #252 ) ;
#201 = PLANE ( 'NONE',  #49 ) ;
#202 = APPLICATION_PROTOCOL_DEFINITION ( 'international standard', 'config_control_design', 1994, #48 ) ;
#203 = ORIENTED_EDGE ( 'NONE', *, *, #124, .T. ) ;
#204 = FACE_OUTER_BOUND ( 'NONE', #131, .T. ) ;
#205 = CIRCLE ( 'NONE', #242, 3.750000000000000000 ) ;
#206 = DIRECTION ( 'NONE',  ( 1.000000000000000000, 0.000000000000000000, -0.000000000000000000 ) ) ;
#207 = CARTESIAN_POINT ( 'NONE',  ( 0.000000000000000000, 0.000000000000000000, 5.000000000000000000 ) ) ;
#208 = APPLICATION_CONTEXT ( 'configuration controlled 3d designs of mechanical parts and assemblies' ) ;
#209 = AXIS2_PLACEMENT_3D ( 'NONE', #4, #158, #230 ) ;
#210 = SECURITY_CLASSIFICATION ( '', '', #196 ) ;
#211 = DIRECTION ( 'NONE',  ( 1.000000000000000000, 0.000000000000000000, 0.000000000000000000 ) ) ;
#212 = DIRECTION ( 'NONE',  ( 1.000000000000000000, 0.000000000000000000, 0.000000000000000000 ) ) ;
#213 = ADVANCED_FACE ( 'NONE', ( #41 ), #126, .T. ) ;
#214 = DATE_TIME_ROLE ( 'classification_date' ) ;
#215 = DIRECTION ( 'NONE',  ( 1.000000000000000000, 0.000000000000000000, 0.000000000000000000 ) ) ;
#216 =( GEOMETRIC_REPRESENTATION_CONTEXT ( 3 ) GLOBAL_UNCERTAINTY_ASSIGNED_CONTEXT ( ( #176 ) ) GLOBAL_UNIT_ASSIGNED_CONTEXT ( ( #20, #152, #221 ) ) REPRESENTATION_CONTEXT ( 'NONE', 'WORKASPACE' ) );
#217 = APPROVAL_DATE_TIME ( #235, #116 ) ;
#218 = CIRCLE ( 'NONE', #39, 6.000000000000000888 ) ;
#219 = CIRCLE ( 'NONE', #157, 6.000000000000000888 ) ;
#220 = CALENDAR_DATE ( 2023, 13, 2 ) ;
#221 =( NAMED_UNIT ( * ) SI_UNIT ( $, .STERADIAN. ) SOLID_ANGLE_UNIT ( ) );
#222 = CARTESIAN_POINT ( 'NONE',  ( 0.000000000000000000, 0.000000000000000000, 250.0000000000000000 ) ) ;
#223 = ORIENTED_EDGE ( 'NONE', *, *, #167, .F. ) ;
#224 = VECTOR ( 'NONE', #151, 1000.000000000000000 ) ;
#225 = DIRECTION ( 'NONE',  ( 0.000000000000000000, 0.000000000000000000, 1.000000000000000000 ) ) ;
#226 = CC_DESIGN_PERSON_AND_ORGANIZATION_ASSIGNMENT ( #87, #169, ( #62 ) ) ;
#227 = DIRECTION ( 'NONE',  ( 1.000000000000000000, 0.000000000000000000, 0.000000000000000000 ) ) ;
#228 = DIRECTION ( 'NONE',  ( -1.000000000000000000, 0.000000000000000000, 0.000000000000000000 ) ) ;
#229 = DIRECTION ( 'NONE',  ( 0.000000000000000000, 0.000000000000000000, 1.000000000000000000 ) ) ;
#230 = DIRECTION ( 'NONE',  ( 1.000000000000000000, 0.000000000000000000, 0.000000000000000000 ) ) ;
#231 = MANIFOLD_SOLID_BREP ( 'Pøidat vysunutím3', #181 ) ;
#232 = AXIS2_PLACEMENT_3D ( 'NONE', #56, #123, #206 ) ;
#233 = LOCAL_TIME ( 14, 34, 29.00000000000000000, #12 ) ;
#234 = CARTESIAN_POINT ( 'NONE',  ( 0.000000000000000000, 0.000000000000000000, 250.0000000000000000 ) ) ;
#235 = DATE_AND_TIME ( #11, #73 ) ;
#236 = COORDINATED_UNIVERSAL_TIME_OFFSET ( 1, 0, .AHEAD. ) ;
#237 = EDGE_CURVE ( 'NONE', #175, #177, #219, .T. ) ;
#238 = VERTEX_POINT ( 'NONE', #109 ) ;
#239 = ORIENTED_EDGE ( 'NONE', *, *, #101, .F. ) ;
#240 = ORIENTED_EDGE ( 'NONE', *, *, #124, .F. ) ;
#241 = ADVANCED_FACE ( 'NONE', ( #168 ), #88, .T. ) ;
#242 = AXIS2_PLACEMENT_3D ( 'NONE', #234, #129, #212 ) ;
#243 = ORIENTED_EDGE ( 'NONE', *, *, #237, .F. ) ;
#244 = EDGE_CURVE ( 'NONE', #238, #80, #114, .T. ) ;
#245 = CARTESIAN_POINT ( 'NONE',  ( 0.000000000000000000, 0.000000000000000000, 5.000000000000000000 ) ) ;
#246 = AXIS2_PLACEMENT_3D ( 'NONE', #207, #25, #100 ) ;
#247 = CARTESIAN_POINT ( 'NONE',  ( -6.000000000000000888, 0.000000000000000000, 5.000000000000000000 ) ) ;
#248 = ORIENTED_EDGE ( 'NONE', *, *, #237, .T. ) ;
#249 = VECTOR ( 'NONE', #60, 1000.000000000000000 ) ;
#250 = COORDINATED_UNIVERSAL_TIME_OFFSET ( 1, 0, .AHEAD. ) ;
#251 = PERSON_AND_ORGANIZATION ( #31, #35 ) ;
#252 = COORDINATED_UNIVERSAL_TIME_OFFSET ( 1, 0, .AHEAD. ) ;
#253 = APPROVAL_STATUS ( 'not_yet_approved' ) ;
#254 = ORIENTED_EDGE ( 'NONE', *, *, #167, .T. ) ;
#255 = APPROVAL ( #44, 'NEURÈENÝ' ) ;
ENDSEC;
END-ISO-10303-21;
