ISO-10303-21;
HEADER;
FILE_DESCRIPTION (( 'STEP AP203' ),
    '1' );
FILE_NAME ('05eb.STEP',
    '2023-01-31T14:33:54',
    ( '' ),
    ( '' ),
    'SwSTEP 2.0',
    'SolidWorks 2019',
    '' );
FILE_SCHEMA (( 'CONFIG_CONTROL_DESIGN' ));
ENDSEC;

DATA;
#1 = MANIFOLD_SOLID_BREP ( 'Pøidat vysunutím3', #115 ) ;
#2 = CARTESIAN_POINT ( 'NONE',  ( 0.000000000000000000, 0.000000000000000000, 0.000000000000000000 ) ) ;
#3 = VERTEX_POINT ( 'NONE', #241 ) ;
#4 = CC_DESIGN_DATE_AND_TIME_ASSIGNMENT ( #94, #176, ( #87 ) ) ;
#5 = ORIENTED_EDGE ( 'NONE', *, *, #188, .F. ) ;
#6 = ORIENTED_EDGE ( 'NONE', *, *, #204, .F. ) ;
#7 = ORIENTED_EDGE ( 'NONE', *, *, #208, .F. ) ;
#8 = FACE_OUTER_BOUND ( 'NONE', #88, .T. ) ;
#9 = CIRCLE ( 'NONE', #101, 1.250000000000000000 ) ;
#10 = DIRECTION ( 'NONE',  ( 0.000000000000000000, 0.000000000000000000, 1.000000000000000000 ) ) ;
#11 = CARTESIAN_POINT ( 'NONE',  ( 0.000000000000000000, 0.000000000000000000, 1.199999999999999956 ) ) ;
#12 =( NAMED_UNIT ( * ) PLANE_ANGLE_UNIT ( ) SI_UNIT ( $, .RADIAN. ) );
#13 = CARTESIAN_POINT ( 'NONE',  ( -0.5000000000000000000, 0.000000000000000000, 100.0000000000000000 ) ) ;
#14 = ADVANCED_FACE ( 'NONE', ( #74 ), #161, .T. ) ;
#15 = AXIS2_PLACEMENT_3D ( 'NONE', #243, #58, #225 ) ;
#16 = AXIS2_PLACEMENT_3D ( 'NONE', #168, #185, #178 ) ;
#17 = ORIENTED_EDGE ( 'NONE', *, *, #250, .T. ) ;
#18 = DIRECTION ( 'NONE',  ( -1.000000000000000000, 0.000000000000000000, 0.000000000000000000 ) ) ;
#19 = EDGE_LOOP ( 'NONE', ( #73, #175 ) ) ;
#20 = CARTESIAN_POINT ( 'NONE',  ( 0.000000000000000000, 0.000000000000000000, 0.000000000000000000 ) ) ;
#21 = CALENDAR_DATE ( 2023, 31, 1 ) ;
#22 = ORIENTED_EDGE ( 'NONE', *, *, #33, .T. ) ;
#23 = CARTESIAN_POINT ( 'NONE',  ( 0.000000000000000000, 0.000000000000000000, 1.199999999999999956 ) ) ;
#25 = CARTESIAN_POINT ( 'NONE',  ( 1.250000000000000000, 1.530808498934191571E-16, 1.199999999999999956 ) ) ;
#24 = PRODUCT_DEFINITION_SHAPE ( 'NONE', 'NONE',  #87 ) ;
#26 = VECTOR ( 'NONE', #226, 1000.000000000000000 ) ;
#27 = APPROVAL_PERSON_ORGANIZATION ( #123, #30, #220 ) ;
#28 = CIRCLE ( 'NONE', #104, 1.250000000000000000 ) ;
#29 = CC_DESIGN_APPROVAL ( #107, ( #237 ) ) ;
#30 = APPROVAL ( #55, 'NEURÈENÝ' ) ;
#31 = PERSON_AND_ORGANIZATION_ROLE ( 'classification_officer' ) ;
#32 = SHAPE_DEFINITION_REPRESENTATION ( #24, #182 ) ;
#33 = EDGE_CURVE ( 'NONE', #235, #136, #28, .T. ) ;
#34 = DIRECTION ( 'NONE',  ( 1.000000000000000000, 0.000000000000000000, 0.000000000000000000 ) ) ;
#35 = EDGE_CURVE ( 'NONE', #90, #193, #112, .T. ) ;
#36 = ORIENTED_EDGE ( 'NONE', *, *, #135, .T. ) ;
#37 = EDGE_LOOP ( 'NONE', ( #53, #17, #117, #5 ) ) ;
#38 = FACE_OUTER_BOUND ( 'NONE', #199, .T. ) ;
#39 = CARTESIAN_POINT ( 'NONE',  ( 0.5000000000000000000, 6.123233995736766036E-17, 100.0000000000000000 ) ) ;
#40 = CC_DESIGN_PERSON_AND_ORGANIZATION_ASSIGNMENT ( #96, #141, ( #87 ) ) ;
#41 = CARTESIAN_POINT ( 'NONE',  ( 0.000000000000000000, 0.000000000000000000, 0.000000000000000000 ) ) ;
#42 = COORDINATED_UNIVERSAL_TIME_OFFSET ( 1, 0, .AHEAD. ) ;
#43 = PLANE ( 'NONE',  #54 ) ;
#44 = AXIS2_PLACEMENT_3D ( 'NONE', #79, #209, #49 ) ;
#45 = DIRECTION ( 'NONE',  ( 1.000000000000000000, 0.000000000000000000, 0.000000000000000000 ) ) ;
#46 = CC_DESIGN_APPROVAL ( #51, ( #201 ) ) ;
#47 = PLANE ( 'NONE',  #252 ) ;
#48 = UNCERTAINTY_MEASURE_WITH_UNIT (LENGTH_MEASURE( 1.000000000000000082E-05 ), #61, 'distance_accuracy_value', 'NONE');
#49 = DIRECTION ( 'NONE',  ( -1.000000000000000000, 0.000000000000000000, 0.000000000000000000 ) ) ;
#50 = COORDINATED_UNIVERSAL_TIME_OFFSET ( 1, 0, .AHEAD. ) ;
#51 = APPROVAL ( #224, 'NEURÈENÝ' ) ;
#52 = ORIENTED_EDGE ( 'NONE', *, *, #250, .F. ) ;
#53 = ORIENTED_EDGE ( 'NONE', *, *, #33, .F. ) ;
#54 = AXIS2_PLACEMENT_3D ( 'NONE', #41, #245, #118 ) ;
#55 = APPROVAL_STATUS ( 'not_yet_approved' ) ;
#56 = APPLICATION_PROTOCOL_DEFINITION ( 'international standard', 'config_control_design', 1994, #255 ) ;
#57 = APPROVAL_DATE_TIME ( #180, #107 ) ;
#58 = DIRECTION ( 'NONE',  ( -0.000000000000000000, -0.000000000000000000, -1.000000000000000000 ) ) ;
#59 = CARTESIAN_POINT ( 'NONE',  ( 1.250000000000000000, 1.530808498934191571E-16, 0.000000000000000000 ) ) ;
#60 = DATE_AND_TIME ( #130, #253 ) ;
#61 =( LENGTH_UNIT ( ) NAMED_UNIT ( * ) SI_UNIT ( .MILLI., .METRE. ) );
#62 = APPROVAL_PERSON_ORGANIZATION ( #187, #51, #80 ) ;
#63 = CC_DESIGN_PERSON_AND_ORGANIZATION_ASSIGNMENT ( #229, #31, ( #201 ) ) ;
#64 = APPROVAL_DATE_TIME ( #183, #51 ) ;
#65 = DIRECTION ( 'NONE',  ( -1.000000000000000000, 0.000000000000000000, 0.000000000000000000 ) ) ;
#66 =( NAMED_UNIT ( * ) SI_UNIT ( $, .STERADIAN. ) SOLID_ANGLE_UNIT ( ) );
#67 = CIRCLE ( 'NONE', #200, 0.5000000000000000000 ) ;
#68 = EDGE_CURVE ( 'NONE', #233, #219, #9, .T. ) ;
#69 = ORIENTED_EDGE ( 'NONE', *, *, #84, .T. ) ;
#70 = ORIENTED_EDGE ( 'NONE', *, *, #188, .T. ) ;
#71 = ORIENTED_EDGE ( 'NONE', *, *, #77, .F. ) ;
#72 = PERSON ( 'NEURÈENÝ', 'NEURÈENÝ', 'NEURÈENÝ', ('NEURÈENÝ'), ('NEURÈENÝ'), ('NEURÈENÝ') ) ;
#73 = ORIENTED_EDGE ( 'NONE', *, *, #231, .F. ) ;
#74 = FACE_OUTER_BOUND ( 'NONE', #113, .T. ) ;
#75 = DIRECTION ( 'NONE',  ( 0.000000000000000000, 0.000000000000000000, 1.000000000000000000 ) ) ;
#76 = AXIS2_PLACEMENT_3D ( 'NONE', #97, #10, #100 ) ;
#77 = EDGE_CURVE ( 'NONE', #136, #235, #251, .T. ) ;
#78 = PRODUCT ( '05eb', '05eb', '', ( #165 ) ) ;
#79 = CARTESIAN_POINT ( 'NONE',  ( 0.000000000000000000, 0.000000000000000000, 100.0000000000000000 ) ) ;
#80 = APPROVAL_ROLE ( '' ) ;
#81 = CARTESIAN_POINT ( 'NONE',  ( -0.5000000000000000000, 0.000000000000000000, 1.199999999999999956 ) ) ;
#82 = FACE_OUTER_BOUND ( 'NONE', #37, .T. ) ;
#83 = PERSON_AND_ORGANIZATION_ROLE ( 'creator' ) ;
#84 = EDGE_CURVE ( 'NONE', #193, #90, #191, .T. ) ;
#85 = LOCAL_TIME ( 15, 33, 54.00000000000000000, #42 ) ;
#86 = AXIS2_PLACEMENT_3D ( 'NONE', #11, #169, #65 ) ;
#87 = PRODUCT_DEFINITION ( 'NEZNÁMÝ', '', #237, #152 ) ;
#88 = EDGE_LOOP ( 'NONE', ( #159, #7 ) ) ;
#89 = LINE ( 'NONE', #172, #198 ) ;
#90 = VERTEX_POINT ( 'NONE', #134 ) ;
#91 = DIRECTION ( 'NONE',  ( 1.000000000000000000, 0.000000000000000000, 0.000000000000000000 ) ) ;
#92 = EDGE_LOOP ( 'NONE', ( #6, #177, #36, #240 ) ) ;
#93 = ORIENTED_EDGE ( 'NONE', *, *, #35, .T. ) ;
#94 = DATE_AND_TIME ( #21, #85 ) ;
#95 = ORIENTED_EDGE ( 'NONE', *, *, #35, .F. ) ;
#96 = PERSON_AND_ORGANIZATION ( #72, #230 ) ;
#97 = CARTESIAN_POINT ( 'NONE',  ( 0.000000000000000000, 0.000000000000000000, 100.0000000000000000 ) ) ;
#98 = CARTESIAN_POINT ( 'NONE',  ( -1.250000000000000000, 0.000000000000000000, 1.199999999999999956 ) ) ;
#99 = APPROVAL_ROLE ( '' ) ;
#100 = DIRECTION ( 'NONE',  ( 1.000000000000000000, 0.000000000000000000, 0.000000000000000000 ) ) ;
#101 = AXIS2_PLACEMENT_3D ( 'NONE', #223, #126, #45 ) ;
#102 = DIRECTION ( 'NONE',  ( 1.000000000000000000, 0.000000000000000000, 0.000000000000000000 ) ) ;
#103 = VECTOR ( 'NONE', #214, 1000.000000000000000 ) ;
#104 = AXIS2_PLACEMENT_3D ( 'NONE', #120, #162, #124 ) ;
#105 = CARTESIAN_POINT ( 'NONE',  ( 0.000000000000000000, 0.000000000000000000, 100.0000000000000000 ) ) ;
#106 = SECURITY_CLASSIFICATION_LEVEL ( 'unclassified' ) ;
#107 = APPROVAL ( #160, 'NEURÈENÝ' ) ;
#108 = CALENDAR_DATE ( 2023, 31, 1 ) ;
#109 = PLANE ( 'NONE',  #138 ) ;
#110 = DIRECTION ( 'NONE',  ( 0.000000000000000000, 0.000000000000000000, 1.000000000000000000 ) ) ;
#111 = CC_DESIGN_PERSON_AND_ORGANIZATION_ASSIGNMENT ( #211, #247, ( #237 ) ) ;
#112 = CIRCLE ( 'NONE', #76, 0.5000000000000000000 ) ;
#113 = EDGE_LOOP ( 'NONE', ( #52, #71, #70, #140 ) ) ;
#114 = LOCAL_TIME ( 15, 33, 54.00000000000000000, #139 ) ;
#115 = CLOSED_SHELL ( 'NONE', ( #238, #155, #14, #142, #196, #174, #153 ) ) ;
#116 = APPROVAL_DATE_TIME ( #216, #30 ) ;
#117 = ORIENTED_EDGE ( 'NONE', *, *, #208, .T. ) ;
#118 = DIRECTION ( 'NONE',  ( 1.000000000000000000, 0.000000000000000000, -0.000000000000000000 ) ) ;
#119 = PERSON_AND_ORGANIZATION_ROLE ( 'design_owner' ) ;
#120 = CARTESIAN_POINT ( 'NONE',  ( 0.000000000000000000, 0.000000000000000000, 1.199999999999999956 ) ) ;
#121 = APPLICATION_CONTEXT ( 'configuration controlled 3d designs of mechanical parts and assemblies' ) ;
#122 = CARTESIAN_POINT ( 'NONE',  ( 0.000000000000000000, 0.000000000000000000, 1.199999999999999956 ) ) ;
#123 = PERSON_AND_ORGANIZATION ( #72, #230 ) ;
#124 = DIRECTION ( 'NONE',  ( 1.000000000000000000, 0.000000000000000000, 0.000000000000000000 ) ) ;
#125 = COORDINATED_UNIVERSAL_TIME_OFFSET ( 1, 0, .AHEAD. ) ;
#126 = DIRECTION ( 'NONE',  ( 0.000000000000000000, 0.000000000000000000, 1.000000000000000000 ) ) ;
#127 = PERSON_AND_ORGANIZATION ( #72, #230 ) ;
#128 = CYLINDRICAL_SURFACE ( 'NONE', #44, 0.5000000000000000000 ) ;
#129 = DIRECTION ( 'NONE',  ( 0.000000000000000000, 0.000000000000000000, 1.000000000000000000 ) ) ;
#130 = CALENDAR_DATE ( 2023, 31, 1 ) ;
#131 =( GEOMETRIC_REPRESENTATION_CONTEXT ( 3 ) GLOBAL_UNCERTAINTY_ASSIGNED_CONTEXT ( ( #48 ) ) GLOBAL_UNIT_ASSIGNED_CONTEXT ( ( #61, #12, #66 ) ) REPRESENTATION_CONTEXT ( 'NONE', 'WORKASPACE' ) );
#132 = CARTESIAN_POINT ( 'NONE',  ( 0.000000000000000000, 0.000000000000000000, 100.0000000000000000 ) ) ;
#133 = LINE ( 'NONE', #39, #103 ) ;
#134 = CARTESIAN_POINT ( 'NONE',  ( 0.5000000000000000000, 6.123233995736766036E-17, 100.0000000000000000 ) ) ;
#135 = EDGE_CURVE ( 'NONE', #193, #195, #236, .T. ) ;
#136 = VERTEX_POINT ( 'NONE', #227 ) ;
#137 = CIRCLE ( 'NONE', #248, 0.5000000000000000000 ) ;
#138 = AXIS2_PLACEMENT_3D ( 'NONE', #105, #184, #190 ) ;
#139 = COORDINATED_UNIVERSAL_TIME_OFFSET ( 1, 0, .AHEAD. ) ;
#140 = ORIENTED_EDGE ( 'NONE', *, *, #68, .T. ) ;
#141 = PERSON_AND_ORGANIZATION_ROLE ( 'creator' ) ;
#142 = ADVANCED_FACE ( 'NONE', ( #167, #181 ), #47, .T. ) ;
#143 = COORDINATED_UNIVERSAL_TIME_OFFSET ( 1, 0, .AHEAD. ) ;
#144 = DIRECTION ( 'NONE',  ( 0.000000000000000000, 0.000000000000000000, 1.000000000000000000 ) ) ;
#145 = CALENDAR_DATE ( 2023, 31, 1 ) ;
#146 = DIRECTION ( 'NONE',  ( 1.000000000000000000, 0.000000000000000000, -0.000000000000000000 ) ) ;
#147 = DATE_TIME_ROLE ( 'classification_date' ) ;
#148 = CIRCLE ( 'NONE', #151, 1.250000000000000000 ) ;
#149 = CARTESIAN_POINT ( 'NONE',  ( -0.5000000000000000000, 0.000000000000000000, 100.0000000000000000 ) ) ;
#150 = LINE ( 'NONE', #98, #239 ) ;
#151 = AXIS2_PLACEMENT_3D ( 'NONE', #20, #194, #34 ) ;
#152 = DESIGN_CONTEXT ( 'detailed design', #255, 'design' ) ;
#153 = ADVANCED_FACE ( 'NONE', ( #222 ), #109, .T. ) ;
#154 = ORIENTED_EDGE ( 'NONE', *, *, #77, .T. ) ;
#155 = ADVANCED_FACE ( 'NONE', ( #82 ), #164, .T. ) ;
#156 = EDGE_LOOP ( 'NONE', ( #69, #93 ) ) ;
#157 = APPROVAL_PERSON_ORGANIZATION ( #203, #107, #99 ) ;
#158 = CC_DESIGN_PERSON_AND_ORGANIZATION_ASSIGNMENT ( #197, #119, ( #78 ) ) ;
#159 = ORIENTED_EDGE ( 'NONE', *, *, #68, .F. ) ;
#160 = APPROVAL_STATUS ( 'not_yet_approved' ) ;
#161 = CYLINDRICAL_SURFACE ( 'NONE', #15, 1.250000000000000000 ) ;
#162 = DIRECTION ( 'NONE',  ( 0.000000000000000000, 0.000000000000000000, 1.000000000000000000 ) ) ;
#163 = AXIS2_PLACEMENT_3D ( 'NONE', #132, #213, #18 ) ;
#164 = CYLINDRICAL_SURFACE ( 'NONE', #86, 1.250000000000000000 ) ;
#165 = MECHANICAL_CONTEXT ( 'NONE', #121, 'mechanical' ) ;
#166 = PRODUCT_RELATED_PRODUCT_CATEGORY ( 'detail', '', ( #78 ) ) ;
#167 = FACE_BOUND ( 'NONE', #19, .T. ) ;
#168 = CARTESIAN_POINT ( 'NONE',  ( 0.000000000000000000, 0.000000000000000000, 1.199999999999999956 ) ) ;
#169 = DIRECTION ( 'NONE',  ( -0.000000000000000000, -0.000000000000000000, -1.000000000000000000 ) ) ;
#170 = APPLICATION_PROTOCOL_DEFINITION ( 'international standard', 'config_control_design', 1994, #121 ) ;
#171 = ORIENTED_EDGE ( 'NONE', *, *, #204, .T. ) ;
#172 = CARTESIAN_POINT ( 'NONE',  ( 1.250000000000000000, 1.530808498934191571E-16, 1.199999999999999956 ) ) ;
#173 = ORIENTED_EDGE ( 'NONE', *, *, #135, .F. ) ;
#174 = ADVANCED_FACE ( 'NONE', ( #228 ), #128, .T. ) ;
#175 = ORIENTED_EDGE ( 'NONE', *, *, #212, .F. ) ;
#176 = DATE_TIME_ROLE ( 'creation_date' ) ;
#177 = ORIENTED_EDGE ( 'NONE', *, *, #84, .F. ) ;
#178 = DIRECTION ( 'NONE',  ( 1.000000000000000000, 0.000000000000000000, 0.000000000000000000 ) ) ;
#179 = DIRECTION ( 'NONE',  ( 0.000000000000000000, 0.000000000000000000, 1.000000000000000000 ) ) ;
#180 = DATE_AND_TIME ( #242, #206 ) ;
#181 = FACE_OUTER_BOUND ( 'NONE', #215, .T. ) ;
#182 = ADVANCED_BREP_SHAPE_REPRESENTATION ( '05eb', ( #1, #232 ), #131 ) ;
#183 = DATE_AND_TIME ( #108, #189 ) ;
#184 = DIRECTION ( 'NONE',  ( 0.000000000000000000, 0.000000000000000000, 1.000000000000000000 ) ) ;
#185 = DIRECTION ( 'NONE',  ( 0.000000000000000000, 0.000000000000000000, 1.000000000000000000 ) ) ;
#186 = DIRECTION ( 'NONE',  ( -0.000000000000000000, -0.000000000000000000, -1.000000000000000000 ) ) ;
#187 = PERSON_AND_ORGANIZATION ( #72, #230 ) ;
#188 = EDGE_CURVE ( 'NONE', #136, #233, #150, .T. ) ;
#189 = LOCAL_TIME ( 15, 33, 54.00000000000000000, #125 ) ;
#190 = DIRECTION ( 'NONE',  ( 1.000000000000000000, 0.000000000000000000, -0.000000000000000000 ) ) ;
#191 = CIRCLE ( 'NONE', #192, 0.5000000000000000000 ) ;
#192 = AXIS2_PLACEMENT_3D ( 'NONE', #207, #75, #234 ) ;
#193 = VERTEX_POINT ( 'NONE', #13 ) ;
#194 = DIRECTION ( 'NONE',  ( 0.000000000000000000, 0.000000000000000000, 1.000000000000000000 ) ) ;
#195 = VERTEX_POINT ( 'NONE', #81 ) ;
#196 = ADVANCED_FACE ( 'NONE', ( #8 ), #43, .F. ) ;
#197 = PERSON_AND_ORGANIZATION ( #72, #230 ) ;
#198 = VECTOR ( 'NONE', #202, 1000.000000000000000 ) ;
#199 = EDGE_LOOP ( 'NONE', ( #95, #171, #217, #173 ) ) ;
#200 = AXIS2_PLACEMENT_3D ( 'NONE', #122, #179, #102 ) ;
#201 = SECURITY_CLASSIFICATION ( '', '', #106 ) ;
#202 = DIRECTION ( 'NONE',  ( -0.000000000000000000, -0.000000000000000000, -1.000000000000000000 ) ) ;
#203 = PERSON_AND_ORGANIZATION ( #72, #230 ) ;
#204 = EDGE_CURVE ( 'NONE', #90, #3, #133, .T. ) ;
#205 = CC_DESIGN_APPROVAL ( #30, ( #87 ) ) ;
#206 = LOCAL_TIME ( 15, 33, 54.00000000000000000, #143 ) ;
#207 = CARTESIAN_POINT ( 'NONE',  ( 0.000000000000000000, 0.000000000000000000, 100.0000000000000000 ) ) ;
#208 = EDGE_CURVE ( 'NONE', #219, #233, #148, .T. ) ;
#209 = DIRECTION ( 'NONE',  ( -0.000000000000000000, -0.000000000000000000, -1.000000000000000000 ) ) ;
#210 = CARTESIAN_POINT ( 'NONE',  ( 0.000000000000000000, 0.000000000000000000, 1.199999999999999956 ) ) ;
#211 = PERSON_AND_ORGANIZATION ( #72, #230 ) ;
#212 = EDGE_CURVE ( 'NONE', #3, #195, #137, .T. ) ;
#213 = DIRECTION ( 'NONE',  ( -0.000000000000000000, -0.000000000000000000, -1.000000000000000000 ) ) ;
#214 = DIRECTION ( 'NONE',  ( -0.000000000000000000, -0.000000000000000000, -1.000000000000000000 ) ) ;
#215 = EDGE_LOOP ( 'NONE', ( #154, #22 ) ) ;
#216 = DATE_AND_TIME ( #145, #114 ) ;
#217 = ORIENTED_EDGE ( 'NONE', *, *, #212, .T. ) ;
#218 = CYLINDRICAL_SURFACE ( 'NONE', #163, 0.5000000000000000000 ) ;
#219 = VERTEX_POINT ( 'NONE', #59 ) ;
#220 = APPROVAL_ROLE ( '' ) ;
#221 = CARTESIAN_POINT ( 'NONE',  ( -1.250000000000000000, 0.000000000000000000, 0.000000000000000000 ) ) ;
#222 = FACE_OUTER_BOUND ( 'NONE', #156, .T. ) ;
#223 = CARTESIAN_POINT ( 'NONE',  ( 0.000000000000000000, 0.000000000000000000, 0.000000000000000000 ) ) ;
#224 = APPROVAL_STATUS ( 'not_yet_approved' ) ;
#225 = DIRECTION ( 'NONE',  ( -1.000000000000000000, 0.000000000000000000, 0.000000000000000000 ) ) ;
#226 = DIRECTION ( 'NONE',  ( -0.000000000000000000, -0.000000000000000000, -1.000000000000000000 ) ) ;
#227 = CARTESIAN_POINT ( 'NONE',  ( -1.250000000000000000, 0.000000000000000000, 1.199999999999999956 ) ) ;
#228 = FACE_OUTER_BOUND ( 'NONE', #92, .T. ) ;
#229 = PERSON_AND_ORGANIZATION ( #72, #230 ) ;
#230 = ORGANIZATION ( 'NEURÈENÝ', 'NEURÈENÝ', '' ) ;
#231 = EDGE_CURVE ( 'NONE', #195, #3, #67, .T. ) ;
#232 = AXIS2_PLACEMENT_3D ( 'NONE', #2, #110, #91 ) ;
#233 = VERTEX_POINT ( 'NONE', #221 ) ;
#234 = DIRECTION ( 'NONE',  ( 1.000000000000000000, 0.000000000000000000, 0.000000000000000000 ) ) ;
#235 = VERTEX_POINT ( 'NONE', #25 ) ;
#236 = LINE ( 'NONE', #149, #26 ) ;
#237 = PRODUCT_DEFINITION_FORMATION_WITH_SPECIFIED_SOURCE ( 'LIBOVOLNÝ', '', #78, .NOT_KNOWN. ) ;
#238 = ADVANCED_FACE ( 'NONE', ( #38 ), #218, .T. ) ;
#239 = VECTOR ( 'NONE', #186, 1000.000000000000000 ) ;
#240 = ORIENTED_EDGE ( 'NONE', *, *, #231, .T. ) ;
#241 = CARTESIAN_POINT ( 'NONE',  ( 0.5000000000000000000, 6.123233995736766036E-17, 1.199999999999999956 ) ) ;
#242 = CALENDAR_DATE ( 2023, 31, 1 ) ;
#243 = CARTESIAN_POINT ( 'NONE',  ( 0.000000000000000000, 0.000000000000000000, 1.199999999999999956 ) ) ;
#244 = CC_DESIGN_DATE_AND_TIME_ASSIGNMENT ( #60, #147, ( #201 ) ) ;
#245 = DIRECTION ( 'NONE',  ( 0.000000000000000000, 0.000000000000000000, 1.000000000000000000 ) ) ;
#246 = DIRECTION ( 'NONE',  ( 1.000000000000000000, 0.000000000000000000, 0.000000000000000000 ) ) ;
#247 = PERSON_AND_ORGANIZATION_ROLE ( 'design_supplier' ) ;
#248 = AXIS2_PLACEMENT_3D ( 'NONE', #210, #144, #246 ) ;
#249 = CC_DESIGN_SECURITY_CLASSIFICATION ( #201, ( #237 ) ) ;
#250 = EDGE_CURVE ( 'NONE', #235, #219, #89, .T. ) ;
#251 = CIRCLE ( 'NONE', #16, 1.250000000000000000 ) ;
#252 = AXIS2_PLACEMENT_3D ( 'NONE', #23, #129, #146 ) ;
#253 = LOCAL_TIME ( 15, 33, 54.00000000000000000, #50 ) ;
#254 = CC_DESIGN_PERSON_AND_ORGANIZATION_ASSIGNMENT ( #127, #83, ( #237 ) ) ;
#255 = APPLICATION_CONTEXT ( 'configuration controlled 3d designs of mechanical parts and assemblies' ) ;
ENDSEC;
END-ISO-10303-21;
