ISO-10303-21;
HEADER;
FILE_DESCRIPTION (( 'STEP AP203' ),
    '1' );
FILE_NAME ('86ed.STEP',
    '2023-02-13T12:07:45',
    ( '' ),
    ( '' ),
    'SwSTEP 2.0',
    'SolidWorks 2019',
    '' );
FILE_SCHEMA (( 'CONFIG_CONTROL_DESIGN' ));
ENDSEC;

DATA;
#1 = PERSON ( 'NEURÈENÝ', 'NEURÈENÝ', 'NEURÈENÝ', ('NEURÈENÝ'), ('NEURÈENÝ'), ('NEURÈENÝ') ) ;
#2 = DIRECTION ( 'NONE',  ( -0.000000000000000000, -0.000000000000000000, -1.000000000000000000 ) ) ;
#3 = COORDINATED_UNIVERSAL_TIME_OFFSET ( 1, 0, .AHEAD. ) ;
#4 = EDGE_CURVE ( 'NONE', #108, #47, #141, .T. ) ;
#5 = FACE_BOUND ( 'NONE', #13, .T. ) ;
#6 = COORDINATED_UNIVERSAL_TIME_OFFSET ( 1, 0, .AHEAD. ) ;
#7 = AXIS2_PLACEMENT_3D ( 'NONE', #161, #251, #230 ) ;
#8 = DIRECTION ( 'NONE',  ( 0.000000000000000000, 0.000000000000000000, 1.000000000000000000 ) ) ;
#9 = DIRECTION ( 'NONE',  ( -0.000000000000000000, -0.000000000000000000, -1.000000000000000000 ) ) ;
#10 = VECTOR ( 'NONE', #96, 1000.000000000000000 ) ;
#11 = APPROVAL_ROLE ( '' ) ;
#12 = CC_DESIGN_APPROVAL ( #143, ( #87 ) ) ;
#13 = EDGE_LOOP ( 'NONE', ( #124, #26 ) ) ;
#14 = ORIENTED_EDGE ( 'NONE', *, *, #31, .T. ) ;
#15 = ORIENTED_EDGE ( 'NONE', *, *, #31, .F. ) ;
#16 = DIRECTION ( 'NONE',  ( 0.000000000000000000, 0.000000000000000000, 1.000000000000000000 ) ) ;
#17 = CARTESIAN_POINT ( 'NONE',  ( -7.000000000000000000, 0.000000000000000000, 5.000000000000000000 ) ) ;
#18 = CARTESIAN_POINT ( 'NONE',  ( -7.000000000000000000, 0.000000000000000000, 5.000000000000000000 ) ) ;
#19 = PERSON_AND_ORGANIZATION ( #1, #232 ) ;
#20 = CARTESIAN_POINT ( 'NONE',  ( 0.000000000000000000, 0.000000000000000000, 0.000000000000000000 ) ) ;
#21 = CC_DESIGN_APPROVAL ( #29, ( #24 ) ) ;
#22 = ADVANCED_FACE ( 'NONE', ( #245 ), #66, .T. ) ;
#23 = APPROVAL_DATE_TIME ( #148, #143 ) ;
#24 = PRODUCT_DEFINITION ( 'NEZNÁMÝ', '', #87, #65 ) ;
#25 = SHAPE_DEFINITION_REPRESENTATION ( #158, #157 ) ;
#26 = ORIENTED_EDGE ( 'NONE', *, *, #106, .F. ) ;
#27 = ORIENTED_EDGE ( 'NONE', *, *, #121, .F. ) ;
#28 = AXIS2_PLACEMENT_3D ( 'NONE', #54, #183, #91 ) ;
#29 = APPROVAL ( #97, 'NEURÈENÝ' ) ;
#30 = ORIENTED_EDGE ( 'NONE', *, *, #188, .T. ) ;
#31 = EDGE_CURVE ( 'NONE', #68, #249, #247, .T. ) ;
#32 = ORIENTED_EDGE ( 'NONE', *, *, #121, .T. ) ;
#33 = ORIENTED_EDGE ( 'NONE', *, *, #67, .F. ) ;
#34 = CARTESIAN_POINT ( 'NONE',  ( 0.000000000000000000, 0.000000000000000000, 5.000000000000000000 ) ) ;
#35 = DIRECTION ( 'NONE',  ( 0.000000000000000000, 0.000000000000000000, 1.000000000000000000 ) ) ;
#36 = CARTESIAN_POINT ( 'NONE',  ( 0.000000000000000000, 0.000000000000000000, 500.0000000000000000 ) ) ;
#37 = CARTESIAN_POINT ( 'NONE',  ( 0.000000000000000000, 0.000000000000000000, 5.000000000000000000 ) ) ;
#38 = CARTESIAN_POINT ( 'NONE',  ( 7.000000000000000000, 8.572527594031473190E-16, 5.000000000000000000 ) ) ;
#39 = ADVANCED_FACE ( 'NONE', ( #131 ), #111, .F. ) ;
#40 = CARTESIAN_POINT ( 'NONE',  ( 0.000000000000000000, 0.000000000000000000, 5.000000000000000000 ) ) ;
#41 = APPROVAL_ROLE ( '' ) ;
#42 = CALENDAR_DATE ( 2023, 13, 2 ) ;
#43 = CARTESIAN_POINT ( 'NONE',  ( 0.000000000000000000, 0.000000000000000000, 500.0000000000000000 ) ) ;
#44 = CC_DESIGN_DATE_AND_TIME_ASSIGNMENT ( #199, #177, ( #192 ) ) ;
#45 = ORIENTED_EDGE ( 'NONE', *, *, #134, .T. ) ;
#46 = CIRCLE ( 'NONE', #7, 4.500000000000000888 ) ;
#47 = VERTEX_POINT ( 'NONE', #234 ) ;
#48 = CARTESIAN_POINT ( 'NONE',  ( 7.000000000000000000, 8.572527594031473190E-16, 5.000000000000000000 ) ) ;
#49 = CC_DESIGN_PERSON_AND_ORGANIZATION_ASSIGNMENT ( #99, #169, ( #192 ) ) ;
#50 = DIRECTION ( 'NONE',  ( 1.000000000000000000, 0.000000000000000000, 0.000000000000000000 ) ) ;
#51 = AXIS2_PLACEMENT_3D ( 'NONE', #146, #213, #57 ) ;
#52 = PLANE ( 'NONE',  #89 ) ;
#53 = ADVANCED_FACE ( 'NONE', ( #71 ), #142, .T. ) ;
#54 = CARTESIAN_POINT ( 'NONE',  ( 0.000000000000000000, 0.000000000000000000, 0.000000000000000000 ) ) ;
#55 = CARTESIAN_POINT ( 'NONE',  ( -4.500000000000000888, 0.000000000000000000, 500.0000000000000000 ) ) ;
#56 = CIRCLE ( 'NONE', #179, 7.000000000000000000 ) ;
#57 = DIRECTION ( 'NONE',  ( -1.000000000000000000, 0.000000000000000000, 0.000000000000000000 ) ) ;
#58 = APPROVAL_PERSON_ORGANIZATION ( #202, #175, #11 ) ;
#59 = FACE_OUTER_BOUND ( 'NONE', #137, .T. ) ;
#60 = AXIS2_PLACEMENT_3D ( 'NONE', #75, #125, #77 ) ;
#61 = DIRECTION ( 'NONE',  ( -1.000000000000000000, 0.000000000000000000, 0.000000000000000000 ) ) ;
#62 =( LENGTH_UNIT ( ) NAMED_UNIT ( * ) SI_UNIT ( .MILLI., .METRE. ) );
#63 = CC_DESIGN_PERSON_AND_ORGANIZATION_ASSIGNMENT ( #115, #220, ( #24 ) ) ;
#64 = APPROVAL_ROLE ( '' ) ;
#65 = DESIGN_CONTEXT ( 'detailed design', #120, 'design' ) ;
#66 = CYLINDRICAL_SURFACE ( 'NONE', #216, 4.500000000000000888 ) ;
#67 = EDGE_CURVE ( 'NONE', #108, #68, #98, .T. ) ;
#68 = VERTEX_POINT ( 'NONE', #18 ) ;
#69 = ORIENTED_EDGE ( 'NONE', *, *, #67, .T. ) ;
#70 = VERTEX_POINT ( 'NONE', #93 ) ;
#71 = FACE_OUTER_BOUND ( 'NONE', #140, .T. ) ;
#72 = CYLINDRICAL_SURFACE ( 'NONE', #82, 7.000000000000000000 ) ;
#73 = CIRCLE ( 'NONE', #212, 4.500000000000000888 ) ;
#74 = CC_DESIGN_PERSON_AND_ORGANIZATION_ASSIGNMENT ( #244, #221, ( #87 ) ) ;
#75 = CARTESIAN_POINT ( 'NONE',  ( 0.000000000000000000, 0.000000000000000000, 5.000000000000000000 ) ) ;
#76 = CARTESIAN_POINT ( 'NONE',  ( 4.500000000000000888, 5.510910596163089556E-16, 500.0000000000000000 ) ) ;
#77 = DIRECTION ( 'NONE',  ( 1.000000000000000000, 0.000000000000000000, 0.000000000000000000 ) ) ;
#78 = AXIS2_PLACEMENT_3D ( 'NONE', #40, #81, #117 ) ;
#79 = APPLICATION_PROTOCOL_DEFINITION ( 'international standard', 'config_control_design', 1994, #197 ) ;
#80 = CARTESIAN_POINT ( 'NONE',  ( -7.000000000000000000, 0.000000000000000000, 0.000000000000000000 ) ) ;
#81 = DIRECTION ( 'NONE',  ( 0.000000000000000000, 0.000000000000000000, 1.000000000000000000 ) ) ;
#82 = AXIS2_PLACEMENT_3D ( 'NONE', #92, #229, #147 ) ;
#83 = CC_DESIGN_PERSON_AND_ORGANIZATION_ASSIGNMENT ( #19, #152, ( #87 ) ) ;
#84 = CALENDAR_DATE ( 2023, 13, 2 ) ;
#85 = DIRECTION ( 'NONE',  ( -1.000000000000000000, 0.000000000000000000, 0.000000000000000000 ) ) ;
#86 = ORIENTED_EDGE ( 'NONE', *, *, #209, .F. ) ;
#87 = PRODUCT_DEFINITION_FORMATION_WITH_SPECIFIED_SOURCE ( 'LIBOVOLNÝ', '', #224, .NOT_KNOWN. ) ;
#88 = EDGE_LOOP ( 'NONE', ( #86, #45, #90, #203 ) ) ;
#89 = AXIS2_PLACEMENT_3D ( 'NONE', #210, #35, #145 ) ;
#90 = ORIENTED_EDGE ( 'NONE', *, *, #106, .T. ) ;
#91 = DIRECTION ( 'NONE',  ( 1.000000000000000000, 0.000000000000000000, 0.000000000000000000 ) ) ;
#92 = CARTESIAN_POINT ( 'NONE',  ( 0.000000000000000000, 0.000000000000000000, 5.000000000000000000 ) ) ;
#93 = CARTESIAN_POINT ( 'NONE',  ( 4.500000000000000888, 5.510910596163089556E-16, 5.000000000000000000 ) ) ;
#94 = DIRECTION ( 'NONE',  ( -0.000000000000000000, -0.000000000000000000, -1.000000000000000000 ) ) ;
#95 = LOCAL_TIME ( 13, 7, 45.00000000000000000, #198 ) ;
#96 = DIRECTION ( 'NONE',  ( -0.000000000000000000, -0.000000000000000000, -1.000000000000000000 ) ) ;
#97 = APPROVAL_STATUS ( 'not_yet_approved' ) ;
#98 = CIRCLE ( 'NONE', #173, 7.000000000000000000 ) ;
#99 = PERSON_AND_ORGANIZATION ( #1, #232 ) ;
#100 = UNCERTAINTY_MEASURE_WITH_UNIT (LENGTH_MEASURE( 1.000000000000000082E-05 ), #62, 'distance_accuracy_value', 'NONE');
#101 = COORDINATED_UNIVERSAL_TIME_OFFSET ( 1, 0, .AHEAD. ) ;
#102 = AXIS2_PLACEMENT_3D ( 'NONE', #36, #112, #61 ) ;
#103 = MECHANICAL_CONTEXT ( 'NONE', #197, 'mechanical' ) ;
#104 = CLOSED_SHELL ( 'NONE', ( #240, #53, #200, #242, #39, #22, #233 ) ) ;
#105 = DIRECTION ( 'NONE',  ( -0.000000000000000000, -0.000000000000000000, -1.000000000000000000 ) ) ;
#106 = EDGE_CURVE ( 'NONE', #70, #204, #116, .T. ) ;
#107 = EDGE_LOOP ( 'NONE', ( #223, #138, #14, #32 ) ) ;
#108 = VERTEX_POINT ( 'NONE', #38 ) ;
#109 = DIRECTION ( 'NONE',  ( 0.000000000000000000, 0.000000000000000000, 1.000000000000000000 ) ) ;
#110 = LOCAL_TIME ( 13, 7, 45.00000000000000000, #3 ) ;
#111 = PLANE ( 'NONE',  #150 ) ;
#112 = DIRECTION ( 'NONE',  ( -0.000000000000000000, -0.000000000000000000, -1.000000000000000000 ) ) ;
#113 = DIRECTION ( 'NONE',  ( 0.000000000000000000, 0.000000000000000000, 1.000000000000000000 ) ) ;
#114 = DIRECTION ( 'NONE',  ( 1.000000000000000000, 0.000000000000000000, 0.000000000000000000 ) ) ;
#115 = PERSON_AND_ORGANIZATION ( #1, #232 ) ;
#116 = CIRCLE ( 'NONE', #154, 4.500000000000000888 ) ;
#117 = DIRECTION ( 'NONE',  ( 1.000000000000000000, 0.000000000000000000, -0.000000000000000000 ) ) ;
#118 = APPLICATION_PROTOCOL_DEFINITION ( 'international standard', 'config_control_design', 1994, #120 ) ;
#119 = EDGE_CURVE ( 'NONE', #225, #204, #186, .T. ) ;
#120 = APPLICATION_CONTEXT ( 'configuration controlled 3d designs of mechanical parts and assemblies' ) ;
#121 = EDGE_CURVE ( 'NONE', #249, #47, #56, .T. ) ;
#122 = EDGE_LOOP ( 'NONE', ( #27, #123 ) ) ;
#123 = ORIENTED_EDGE ( 'NONE', *, *, #165, .F. ) ;
#124 = ORIENTED_EDGE ( 'NONE', *, *, #226, .F. ) ;
#125 = DIRECTION ( 'NONE',  ( 0.000000000000000000, 0.000000000000000000, 1.000000000000000000 ) ) ;
#126 = CARTESIAN_POINT ( 'NONE',  ( 0.000000000000000000, 0.000000000000000000, 0.000000000000000000 ) ) ;
#127 = FACE_OUTER_BOUND ( 'NONE', #88, .T. ) ;
#128 = DIRECTION ( 'NONE',  ( 0.000000000000000000, 0.000000000000000000, 1.000000000000000000 ) ) ;
#129 = AXIS2_PLACEMENT_3D ( 'NONE', #34, #16, #235 ) ;
#130 = EDGE_CURVE ( 'NONE', #225, #207, #73, .T. ) ;
#131 = FACE_OUTER_BOUND ( 'NONE', #122, .T. ) ;
#132 =( NAMED_UNIT ( * ) PLANE_ANGLE_UNIT ( ) SI_UNIT ( $, .RADIAN. ) );
#133 = PERSON_AND_ORGANIZATION ( #1, #232 ) ;
#134 = EDGE_CURVE ( 'NONE', #207, #70, #254, .T. ) ;
#135 = COORDINATED_UNIVERSAL_TIME_OFFSET ( 1, 0, .AHEAD. ) ;
#136 = DATE_AND_TIME ( #241, #176 ) ;
#137 = EDGE_LOOP ( 'NONE', ( #30, #69 ) ) ;
#138 = ORIENTED_EDGE ( 'NONE', *, *, #188, .F. ) ;
#139 = CIRCLE ( 'NONE', #129, 4.500000000000000888 ) ;
#140 = EDGE_LOOP ( 'NONE', ( #33, #155, #181, #15 ) ) ;
#141 = LINE ( 'NONE', #48, #190 ) ;
#142 = CYLINDRICAL_SURFACE ( 'NONE', #51, 7.000000000000000000 ) ;
#143 = APPROVAL ( #189, 'NEURÈENÝ' ) ;
#144 = FACE_OUTER_BOUND ( 'NONE', #201, .T. ) ;
#145 = DIRECTION ( 'NONE',  ( 1.000000000000000000, 0.000000000000000000, -0.000000000000000000 ) ) ;
#146 = CARTESIAN_POINT ( 'NONE',  ( 0.000000000000000000, 0.000000000000000000, 5.000000000000000000 ) ) ;
#147 = DIRECTION ( 'NONE',  ( -1.000000000000000000, 0.000000000000000000, 0.000000000000000000 ) ) ;
#148 = DATE_AND_TIME ( #42, #205 ) ;
#149 = PERSON_AND_ORGANIZATION_ROLE ( 'design_owner' ) ;
#150 = AXIS2_PLACEMENT_3D ( 'NONE', #126, #128, #185 ) ;
#151 = APPROVAL_DATE_TIME ( #193, #29 ) ;
#152 = PERSON_AND_ORGANIZATION_ROLE ( 'creator' ) ;
#153 = ORIENTED_EDGE ( 'NONE', *, *, #130, .F. ) ;
#154 = AXIS2_PLACEMENT_3D ( 'NONE', #37, #252, #187 ) ;
#155 = ORIENTED_EDGE ( 'NONE', *, *, #4, .T. ) ;
#156 = APPROVAL_PERSON_ORGANIZATION ( #172, #143, #64 ) ;
#157 = ADVANCED_BREP_SHAPE_REPRESENTATION ( '86ed', ( #219, #218 ), #222 ) ;
#158 = PRODUCT_DEFINITION_SHAPE ( 'NONE', 'NONE',  #24 ) ;
#159 = VECTOR ( 'NONE', #94, 1000.000000000000000 ) ;
#160 = ORIENTED_EDGE ( 'NONE', *, *, #130, .T. ) ;
#161 = CARTESIAN_POINT ( 'NONE',  ( 0.000000000000000000, 0.000000000000000000, 500.0000000000000000 ) ) ;
#162 = CARTESIAN_POINT ( 'NONE',  ( -4.500000000000000888, 0.000000000000000000, 5.000000000000000000 ) ) ;
#163 = CIRCLE ( 'NONE', #60, 7.000000000000000000 ) ;
#164 = CARTESIAN_POINT ( 'NONE',  ( 0.000000000000000000, 0.000000000000000000, 500.0000000000000000 ) ) ;
#165 = EDGE_CURVE ( 'NONE', #47, #249, #196, .T. ) ;
#166 = FACE_OUTER_BOUND ( 'NONE', #107, .T. ) ;
#167 = CARTESIAN_POINT ( 'NONE',  ( 4.500000000000000888, 5.510910596163089556E-16, 500.0000000000000000 ) ) ;
#168 = DATE_TIME_ROLE ( 'creation_date' ) ;
#169 = PERSON_AND_ORGANIZATION_ROLE ( 'classification_officer' ) ;
#170 = CC_DESIGN_SECURITY_CLASSIFICATION ( #192, ( #87 ) ) ;
#171 = PERSON_AND_ORGANIZATION ( #1, #232 ) ;
#172 = PERSON_AND_ORGANIZATION ( #1, #232 ) ;
#173 = AXIS2_PLACEMENT_3D ( 'NONE', #255, #113, #214 ) ;
#174 = CALENDAR_DATE ( 2023, 13, 2 ) ;
#175 = APPROVAL ( #180, 'NEURÈENÝ' ) ;
#176 = LOCAL_TIME ( 13, 7, 45.00000000000000000, #101 ) ;
#177 = DATE_TIME_ROLE ( 'classification_date' ) ;
#178 = ORIENTED_EDGE ( 'NONE', *, *, #226, .T. ) ;
#179 = AXIS2_PLACEMENT_3D ( 'NONE', #231, #109, #114 ) ;
#180 = APPROVAL_STATUS ( 'not_yet_approved' ) ;
#181 = ORIENTED_EDGE ( 'NONE', *, *, #165, .T. ) ;
#182 = ORIENTED_EDGE ( 'NONE', *, *, #134, .F. ) ;
#183 = DIRECTION ( 'NONE',  ( 0.000000000000000000, 0.000000000000000000, 1.000000000000000000 ) ) ;
#184 = DIRECTION ( 'NONE',  ( 0.000000000000000000, 0.000000000000000000, 1.000000000000000000 ) ) ;
#185 = DIRECTION ( 'NONE',  ( 1.000000000000000000, 0.000000000000000000, -0.000000000000000000 ) ) ;
#186 = LINE ( 'NONE', #55, #10 ) ;
#187 = DIRECTION ( 'NONE',  ( 1.000000000000000000, 0.000000000000000000, 0.000000000000000000 ) ) ;
#188 = EDGE_CURVE ( 'NONE', #68, #108, #163, .T. ) ;
#189 = APPROVAL_STATUS ( 'not_yet_approved' ) ;
#190 = VECTOR ( 'NONE', #105, 1000.000000000000000 ) ;
#191 =( NAMED_UNIT ( * ) SI_UNIT ( $, .STERADIAN. ) SOLID_ANGLE_UNIT ( ) );
#192 = SECURITY_CLASSIFICATION ( '', '', #236 ) ;
#193 = DATE_AND_TIME ( #174, #243 ) ;
#194 = PRODUCT_RELATED_PRODUCT_CATEGORY ( 'detail', '', ( #224 ) ) ;
#195 = DIRECTION ( 'NONE',  ( 1.000000000000000000, 0.000000000000000000, 0.000000000000000000 ) ) ;
#196 = CIRCLE ( 'NONE', #28, 7.000000000000000000 ) ;
#197 = APPLICATION_CONTEXT ( 'configuration controlled 3d designs of mechanical parts and assemblies' ) ;
#198 = COORDINATED_UNIVERSAL_TIME_OFFSET ( 1, 0, .AHEAD. ) ;
#199 = DATE_AND_TIME ( #238, #110 ) ;
#200 = ADVANCED_FACE ( 'NONE', ( #166 ), #72, .T. ) ;
#201 = EDGE_LOOP ( 'NONE', ( #160, #206 ) ) ;
#202 = PERSON_AND_ORGANIZATION ( #1, #232 ) ;
#203 = ORIENTED_EDGE ( 'NONE', *, *, #119, .F. ) ;
#204 = VERTEX_POINT ( 'NONE', #162 ) ;
#205 = LOCAL_TIME ( 13, 7, 45.00000000000000000, #6 ) ;
#206 = ORIENTED_EDGE ( 'NONE', *, *, #209, .T. ) ;
#207 = VERTEX_POINT ( 'NONE', #76 ) ;
#208 = CARTESIAN_POINT ( 'NONE',  ( -4.500000000000000888, 0.000000000000000000, 500.0000000000000000 ) ) ;
#209 = EDGE_CURVE ( 'NONE', #207, #225, #46, .T. ) ;
#210 = CARTESIAN_POINT ( 'NONE',  ( 0.000000000000000000, 0.000000000000000000, 500.0000000000000000 ) ) ;
#211 = CYLINDRICAL_SURFACE ( 'NONE', #102, 4.500000000000000888 ) ;
#212 = AXIS2_PLACEMENT_3D ( 'NONE', #164, #184, #50 ) ;
#213 = DIRECTION ( 'NONE',  ( -0.000000000000000000, -0.000000000000000000, -1.000000000000000000 ) ) ;
#214 = DIRECTION ( 'NONE',  ( 1.000000000000000000, 0.000000000000000000, 0.000000000000000000 ) ) ;
#215 = CC_DESIGN_APPROVAL ( #175, ( #192 ) ) ;
#216 = AXIS2_PLACEMENT_3D ( 'NONE', #43, #9, #85 ) ;
#217 = PLANE ( 'NONE',  #78 ) ;
#218 = AXIS2_PLACEMENT_3D ( 'NONE', #20, #8, #195 ) ;
#219 = MANIFOLD_SOLID_BREP ( 'Pøidat vysunutím3', #104 ) ;
#220 = PERSON_AND_ORGANIZATION_ROLE ( 'creator' ) ;
#221 = PERSON_AND_ORGANIZATION_ROLE ( 'design_supplier' ) ;
#222 =( GEOMETRIC_REPRESENTATION_CONTEXT ( 3 ) GLOBAL_UNCERTAINTY_ASSIGNED_CONTEXT ( ( #100 ) ) GLOBAL_UNIT_ASSIGNED_CONTEXT ( ( #62, #132, #191 ) ) REPRESENTATION_CONTEXT ( 'NONE', 'WORKASPACE' ) );
#223 = ORIENTED_EDGE ( 'NONE', *, *, #4, .F. ) ;
#224 = PRODUCT ( '86ed', '86ed', '', ( #103 ) ) ;
#225 = VERTEX_POINT ( 'NONE', #208 ) ;
#226 = EDGE_CURVE ( 'NONE', #204, #70, #139, .T. ) ;
#227 = DATE_AND_TIME ( #84, #95 ) ;
#228 = EDGE_LOOP ( 'NONE', ( #182, #153, #250, #178 ) ) ;
#229 = DIRECTION ( 'NONE',  ( -0.000000000000000000, -0.000000000000000000, -1.000000000000000000 ) ) ;
#230 = DIRECTION ( 'NONE',  ( 1.000000000000000000, 0.000000000000000000, 0.000000000000000000 ) ) ;
#231 = CARTESIAN_POINT ( 'NONE',  ( 0.000000000000000000, 0.000000000000000000, 0.000000000000000000 ) ) ;
#232 = ORGANIZATION ( 'NEURÈENÝ', 'NEURÈENÝ', '' ) ;
#233 = ADVANCED_FACE ( 'NONE', ( #144 ), #52, .T. ) ;
#234 = CARTESIAN_POINT ( 'NONE',  ( 7.000000000000000000, 8.572527594031473190E-16, 0.000000000000000000 ) ) ;
#235 = DIRECTION ( 'NONE',  ( 1.000000000000000000, 0.000000000000000000, 0.000000000000000000 ) ) ;
#236 = SECURITY_CLASSIFICATION_LEVEL ( 'unclassified' ) ;
#237 = APPROVAL_PERSON_ORGANIZATION ( #133, #29, #41 ) ;
#238 = CALENDAR_DATE ( 2023, 13, 2 ) ;
#239 = CC_DESIGN_DATE_AND_TIME_ASSIGNMENT ( #136, #168, ( #24 ) ) ;
#240 = ADVANCED_FACE ( 'NONE', ( #127 ), #211, .T. ) ;
#241 = CALENDAR_DATE ( 2023, 13, 2 ) ;
#242 = ADVANCED_FACE ( 'NONE', ( #5, #59 ), #217, .T. ) ;
#243 = LOCAL_TIME ( 13, 7, 45.00000000000000000, #135 ) ;
#244 = PERSON_AND_ORGANIZATION ( #1, #232 ) ;
#245 = FACE_OUTER_BOUND ( 'NONE', #228, .T. ) ;
#246 = CC_DESIGN_PERSON_AND_ORGANIZATION_ASSIGNMENT ( #171, #149, ( #224 ) ) ;
#247 = LINE ( 'NONE', #17, #159 ) ;
#248 = APPROVAL_DATE_TIME ( #227, #175 ) ;
#249 = VERTEX_POINT ( 'NONE', #80 ) ;
#250 = ORIENTED_EDGE ( 'NONE', *, *, #119, .T. ) ;
#251 = DIRECTION ( 'NONE',  ( 0.000000000000000000, 0.000000000000000000, 1.000000000000000000 ) ) ;
#252 = DIRECTION ( 'NONE',  ( 0.000000000000000000, 0.000000000000000000, 1.000000000000000000 ) ) ;
#253 = VECTOR ( 'NONE', #2, 1000.000000000000000 ) ;
#254 = LINE ( 'NONE', #167, #253 ) ;
#255 = CARTESIAN_POINT ( 'NONE',  ( 0.000000000000000000, 0.000000000000000000, 5.000000000000000000 ) ) ;
ENDSEC;
END-ISO-10303-21;
