ISO-10303-21;
HEADER;
FILE_DESCRIPTION (( 'STEP AP203' ),
    '1' );
FILE_NAME ('e080.STEP',
    '2023-01-31T14:34:46',
    ( '' ),
    ( '' ),
    'SwSTEP 2.0',
    'SolidWorks 2019',
    '' );
FILE_SCHEMA (( 'CONFIG_CONTROL_DESIGN' ));
ENDSEC;

DATA;
#1 = CARTESIAN_POINT ( 'NONE',  ( 0.000000000000000000, 0.000000000000000000, 0.000000000000000000 ) ) ;
#2 = VERTEX_POINT ( 'NONE', #93 ) ;
#3 = CIRCLE ( 'NONE', #210, 1.250000000000000000 ) ;
#4 = DIRECTION ( 'NONE',  ( 0.000000000000000000, 0.000000000000000000, 1.000000000000000000 ) ) ;
#5 = CARTESIAN_POINT ( 'NONE',  ( 0.000000000000000000, 0.000000000000000000, 100.0000000000000000 ) ) ;
#6 = FACE_OUTER_BOUND ( 'NONE', #215, .T. ) ;
#7 = ORIENTED_EDGE ( 'NONE', *, *, #203, .T. ) ;
#8 = PLANE ( 'NONE',  #41 ) ;
#9 = EDGE_CURVE ( 'NONE', #156, #2, #69, .T. ) ;
#10 = APPROVAL_DATE_TIME ( #182, #226 ) ;
#11 = DIRECTION ( 'NONE',  ( 0.000000000000000000, 0.000000000000000000, 1.000000000000000000 ) ) ;
#12 = CLOSED_SHELL ( 'NONE', ( #80, #94, #24, #61, #77, #214, #171 ) ) ;
#13 = DATE_TIME_ROLE ( 'creation_date' ) ;
#14 = FACE_OUTER_BOUND ( 'NONE', #166, .T. ) ;
#15 = DIRECTION ( 'NONE',  ( 0.000000000000000000, 0.000000000000000000, 1.000000000000000000 ) ) ;
#16 = DIRECTION ( 'NONE',  ( 1.000000000000000000, 0.000000000000000000, 0.000000000000000000 ) ) ;
#17 = COORDINATED_UNIVERSAL_TIME_OFFSET ( 1, 0, .AHEAD. ) ;
#18 = APPROVAL_PERSON_ORGANIZATION ( #90, #29, #104 ) ;
#19 = DIRECTION ( 'NONE',  ( 1.000000000000000000, 0.000000000000000000, 0.000000000000000000 ) ) ;
#20 = EDGE_CURVE ( 'NONE', #235, #148, #92, .T. ) ;
#21 = CC_DESIGN_DATE_AND_TIME_ASSIGNMENT ( #196, #250, ( #155 ) ) ;
#22 = ORIENTED_EDGE ( 'NONE', *, *, #127, .F. ) ;
#23 = PERSON_AND_ORGANIZATION ( #195, #204 ) ;
#24 = ADVANCED_FACE ( 'NONE', ( #91 ), #151, .T. ) ;
#25 = ORIENTED_EDGE ( 'NONE', *, *, #178, .F. ) ;
#26 = PLANE ( 'NONE',  #124 ) ;
#27 = LOCAL_TIME ( 15, 34, 46.00000000000000000, #230 ) ;
#28 = DIRECTION ( 'NONE',  ( 1.000000000000000000, 0.000000000000000000, 0.000000000000000000 ) ) ;
#29 = APPROVAL ( #31, 'NEURÈENÝ' ) ;
#30 = DIRECTION ( 'NONE',  ( 1.000000000000000000, 0.000000000000000000, -0.000000000000000000 ) ) ;
#31 = APPROVAL_STATUS ( 'not_yet_approved' ) ;
#32 = CARTESIAN_POINT ( 'NONE',  ( 0.000000000000000000, 0.000000000000000000, 100.0000000000000000 ) ) ;
#33 = CARTESIAN_POINT ( 'NONE',  ( 0.000000000000000000, 0.000000000000000000, 0.000000000000000000 ) ) ;
#34 = COORDINATED_UNIVERSAL_TIME_OFFSET ( 1, 0, .AHEAD. ) ;
#35 = CIRCLE ( 'NONE', #184, 1.250000000000000000 ) ;
#36 = PERSON_AND_ORGANIZATION_ROLE ( 'creator' ) ;
#37 = APPROVAL_PERSON_ORGANIZATION ( #55, #86, #175 ) ;
#38 =( NAMED_UNIT ( * ) SI_UNIT ( $, .STERADIAN. ) SOLID_ANGLE_UNIT ( ) );
#39 = CC_DESIGN_PERSON_AND_ORGANIZATION_ASSIGNMENT ( #157, #78, ( #62 ) ) ;
#40 = ORIENTED_EDGE ( 'NONE', *, *, #100, .F. ) ;
#41 = AXIS2_PLACEMENT_3D ( 'NONE', #188, #170, #30 ) ;
#42 = CIRCLE ( 'NONE', #97, 1.250000000000000000 ) ;
#43 = MECHANICAL_CONTEXT ( 'NONE', #84, 'mechanical' ) ;
#44 = CYLINDRICAL_SURFACE ( 'NONE', #87, 0.5000000000000000000 ) ;
#45 = EDGE_LOOP ( 'NONE', ( #237, #25, #255, #113 ) ) ;
#46 = DIRECTION ( 'NONE',  ( -0.000000000000000000, -0.000000000000000000, -1.000000000000000000 ) ) ;
#47 = CARTESIAN_POINT ( 'NONE',  ( 0.000000000000000000, 0.000000000000000000, 1.199999999999999956 ) ) ;
#48 = CC_DESIGN_SECURITY_CLASSIFICATION ( #155, ( #62 ) ) ;
#49 = ORIENTED_EDGE ( 'NONE', *, *, #56, .F. ) ;
#50 = CYLINDRICAL_SURFACE ( 'NONE', #98, 0.5000000000000000000 ) ;
#51 = CARTESIAN_POINT ( 'NONE',  ( 0.000000000000000000, 0.000000000000000000, 1.199999999999999956 ) ) ;
#52 = CC_DESIGN_APPROVAL ( #226, ( #155 ) ) ;
#53 = CARTESIAN_POINT ( 'NONE',  ( 0.000000000000000000, 0.000000000000000000, 1.199999999999999956 ) ) ;
#54 = APPROVAL_DATE_TIME ( #248, #86 ) ;
#55 = PERSON_AND_ORGANIZATION ( #195, #204 ) ;
#56 = EDGE_CURVE ( 'NONE', #64, #232, #83, .T. ) ;
#57 = DIRECTION ( 'NONE',  ( 0.000000000000000000, 0.000000000000000000, 1.000000000000000000 ) ) ;
#58 = VECTOR ( 'NONE', #81, 1000.000000000000000 ) ;
#59 = PRODUCT_DEFINITION_SHAPE ( 'NONE', 'NONE',  #243 ) ;
#60 = ORIENTED_EDGE ( 'NONE', *, *, #100, .T. ) ;
#61 = ADVANCED_FACE ( 'NONE', ( #152, #135 ), #26, .T. ) ;
#62 = PRODUCT_DEFINITION_FORMATION_WITH_SPECIFIED_SOURCE ( 'LIBOVOLNÝ', '', #163, .NOT_KNOWN. ) ;
#63 = EDGE_LOOP ( 'NONE', ( #218, #71, #109, #67 ) ) ;
#64 = VERTEX_POINT ( 'NONE', #132 ) ;
#65 = EDGE_CURVE ( 'NONE', #148, #232, #219, .T. ) ;
#66 = CC_DESIGN_PERSON_AND_ORGANIZATION_ASSIGNMENT ( #224, #158, ( #155 ) ) ;
#67 = ORIENTED_EDGE ( 'NONE', *, *, #56, .T. ) ;
#68 = VECTOR ( 'NONE', #191, 1000.000000000000000 ) ;
#69 = LINE ( 'NONE', #221, #160 ) ;
#70 = CC_DESIGN_APPROVAL ( #29, ( #243 ) ) ;
#71 = ORIENTED_EDGE ( 'NONE', *, *, #20, .F. ) ;
#72 = DIRECTION ( 'NONE',  ( 0.000000000000000000, 0.000000000000000000, 1.000000000000000000 ) ) ;
#73 = DIRECTION ( 'NONE',  ( -1.000000000000000000, 0.000000000000000000, 0.000000000000000000 ) ) ;
#74 = CALENDAR_DATE ( 2023, 31, 1 ) ;
#75 = CARTESIAN_POINT ( 'NONE',  ( 0.000000000000000000, 0.000000000000000000, 1.199999999999999956 ) ) ;
#76 = CALENDAR_DATE ( 2023, 31, 1 ) ;
#77 = ADVANCED_FACE ( 'NONE', ( #172 ), #8, .F. ) ;
#78 = PERSON_AND_ORGANIZATION_ROLE ( 'design_supplier' ) ;
#79 = CARTESIAN_POINT ( 'NONE',  ( 0.5000000000000000000, 6.123233995736766036E-17, 100.0000000000000000 ) ) ;
#80 = ADVANCED_FACE ( 'NONE', ( #114 ), #44, .T. ) ;
#81 = DIRECTION ( 'NONE',  ( -0.000000000000000000, -0.000000000000000000, -1.000000000000000000 ) ) ;
#82 = CARTESIAN_POINT ( 'NONE',  ( 0.000000000000000000, 0.000000000000000000, 1.199999999999999956 ) ) ;
#83 = CIRCLE ( 'NONE', #198, 0.5000000000000000000 ) ;
#84 = APPLICATION_CONTEXT ( 'configuration controlled 3d designs of mechanical parts and assemblies' ) ;
#85 = UNCERTAINTY_MEASURE_WITH_UNIT (LENGTH_MEASURE( 1.000000000000000082E-05 ), #144, 'distance_accuracy_value', 'NONE');
#86 = APPROVAL ( #99, 'NEURÈENÝ' ) ;
#87 = AXIS2_PLACEMENT_3D ( 'NONE', #5, #236, #189 ) ;
#88 = ORIENTED_EDGE ( 'NONE', *, *, #127, .T. ) ;
#89 = CC_DESIGN_PERSON_AND_ORGANIZATION_ASSIGNMENT ( #117, #143, ( #243 ) ) ;
#90 = PERSON_AND_ORGANIZATION ( #195, #204 ) ;
#91 = FACE_OUTER_BOUND ( 'NONE', #45, .T. ) ;
#92 = CIRCLE ( 'NONE', #240, 0.5000000000000000000 ) ;
#93 = CARTESIAN_POINT ( 'NONE',  ( 1.250000000000000000, 1.530808498934191571E-16, 0.000000000000000000 ) ) ;
#94 = ADVANCED_FACE ( 'NONE', ( #6 ), #223, .T. ) ;
#95 = CARTESIAN_POINT ( 'NONE',  ( 0.000000000000000000, 0.000000000000000000, 1.199999999999999956 ) ) ;
#96 = SHAPE_DEFINITION_REPRESENTATION ( #59, #247 ) ;
#97 = AXIS2_PLACEMENT_3D ( 'NONE', #53, #199, #118 ) ;
#98 = AXIS2_PLACEMENT_3D ( 'NONE', #229, #139, #197 ) ;
#99 = APPROVAL_STATUS ( 'not_yet_approved' ) ;
#100 = EDGE_CURVE ( 'NONE', #148, #235, #190, .T. ) ;
#101 = DIRECTION ( 'NONE',  ( 0.000000000000000000, 0.000000000000000000, 1.000000000000000000 ) ) ;
#102 = APPLICATION_CONTEXT ( 'configuration controlled 3d designs of mechanical parts and assemblies' ) ;
#103 = DIRECTION ( 'NONE',  ( 1.000000000000000000, 0.000000000000000000, -0.000000000000000000 ) ) ;
#104 = APPROVAL_ROLE ( '' ) ;
#105 = CARTESIAN_POINT ( 'NONE',  ( 0.000000000000000000, 0.000000000000000000, 100.0000000000000000 ) ) ;
#106 = SECURITY_CLASSIFICATION_LEVEL ( 'unclassified' ) ;
#107 = CARTESIAN_POINT ( 'NONE',  ( 1.250000000000000000, 1.530808498934191571E-16, 1.199999999999999956 ) ) ;
#108 = DIRECTION ( 'NONE',  ( -0.000000000000000000, -0.000000000000000000, -1.000000000000000000 ) ) ;
#109 = ORIENTED_EDGE ( 'NONE', *, *, #161, .T. ) ;
#110 = CC_DESIGN_APPROVAL ( #86, ( #62 ) ) ;
#111 = EDGE_CURVE ( 'NONE', #183, #2, #35, .T. ) ;
#112 = PERSON_AND_ORGANIZATION_ROLE ( 'design_owner' ) ;
#113 = ORIENTED_EDGE ( 'NONE', *, *, #111, .T. ) ;
#114 = FACE_OUTER_BOUND ( 'NONE', #201, .T. ) ;
#115 = ORIENTED_EDGE ( 'NONE', *, *, #178, .T. ) ;
#116 = CC_DESIGN_DATE_AND_TIME_ASSIGNMENT ( #211, #13, ( #243 ) ) ;
#117 = PERSON_AND_ORGANIZATION ( #195, #204 ) ;
#118 = DIRECTION ( 'NONE',  ( 1.000000000000000000, 0.000000000000000000, 0.000000000000000000 ) ) ;
#119 = APPROVAL_PERSON_ORGANIZATION ( #126, #226, #251 ) ;
#120 = APPROVAL_DATE_TIME ( #179, #29 ) ;
#121 = DIRECTION ( 'NONE',  ( 1.000000000000000000, 0.000000000000000000, 0.000000000000000000 ) ) ;
#122 = PLANE ( 'NONE',  #125 ) ;
#123 = CALENDAR_DATE ( 2023, 31, 1 ) ;
#124 = AXIS2_PLACEMENT_3D ( 'NONE', #47, #11, #133 ) ;
#125 = AXIS2_PLACEMENT_3D ( 'NONE', #32, #213, #103 ) ;
#126 = PERSON_AND_ORGANIZATION ( #195, #204 ) ;
#127 = EDGE_CURVE ( 'NONE', #156, #233, #42, .T. ) ;
#128 = ORIENTED_EDGE ( 'NONE', *, *, #129, .F. ) ;
#129 = EDGE_CURVE ( 'NONE', #233, #183, #249, .T. ) ;
#130 = CIRCLE ( 'NONE', #241, 1.250000000000000000 ) ;
#131 = CARTESIAN_POINT ( 'NONE',  ( 0.5000000000000000000, 6.123233995736766036E-17, 100.0000000000000000 ) ) ;
#132 = CARTESIAN_POINT ( 'NONE',  ( -0.5000000000000000000, 0.000000000000000000, 1.199999999999999956 ) ) ;
#133 = DIRECTION ( 'NONE',  ( 1.000000000000000000, 0.000000000000000000, -0.000000000000000000 ) ) ;
#134 = LOCAL_TIME ( 15, 34, 46.00000000000000000, #34 ) ;
#135 = FACE_OUTER_BOUND ( 'NONE', #192, .T. ) ;
#136 = DIRECTION ( 'NONE',  ( 0.000000000000000000, 0.000000000000000000, 1.000000000000000000 ) ) ;
#137 = CALENDAR_DATE ( 2023, 31, 1 ) ;
#138 = DIRECTION ( 'NONE',  ( 1.000000000000000000, 0.000000000000000000, 0.000000000000000000 ) ) ;
#139 = DIRECTION ( 'NONE',  ( -0.000000000000000000, -0.000000000000000000, -1.000000000000000000 ) ) ;
#140 = APPROVAL_STATUS ( 'not_yet_approved' ) ;
#141 = CC_DESIGN_PERSON_AND_ORGANIZATION_ASSIGNMENT ( #212, #36, ( #62 ) ) ;
#142 =( NAMED_UNIT ( * ) PLANE_ANGLE_UNIT ( ) SI_UNIT ( $, .RADIAN. ) );
#143 = PERSON_AND_ORGANIZATION_ROLE ( 'creator' ) ;
#144 =( LENGTH_UNIT ( ) NAMED_UNIT ( * ) SI_UNIT ( .MILLI., .METRE. ) );
#145 = AXIS2_PLACEMENT_3D ( 'NONE', #51, #136, #246 ) ;
#146 = CIRCLE ( 'NONE', #145, 0.5000000000000000000 ) ;
#147 = ORIENTED_EDGE ( 'NONE', *, *, #9, .T. ) ;
#148 = VERTEX_POINT ( 'NONE', #79 ) ;
#149 = ORIENTED_EDGE ( 'NONE', *, *, #254, .F. ) ;
#150 = CARTESIAN_POINT ( 'NONE',  ( 0.000000000000000000, 0.000000000000000000, 100.0000000000000000 ) ) ;
#151 = CYLINDRICAL_SURFACE ( 'NONE', #193, 1.250000000000000000 ) ;
#152 = FACE_BOUND ( 'NONE', #164, .T. ) ;
#153 = AXIS2_PLACEMENT_3D ( 'NONE', #105, #231, #19 ) ;
#154 = ORIENTED_EDGE ( 'NONE', *, *, #254, .T. ) ;
#155 = SECURITY_CLASSIFICATION ( '', '', #106 ) ;
#156 = VERTEX_POINT ( 'NONE', #107 ) ;
#157 = PERSON_AND_ORGANIZATION ( #195, #204 ) ;
#158 = PERSON_AND_ORGANIZATION_ROLE ( 'classification_officer' ) ;
#159 = CARTESIAN_POINT ( 'NONE',  ( -1.250000000000000000, 0.000000000000000000, 0.000000000000000000 ) ) ;
#160 = VECTOR ( 'NONE', #46, 1000.000000000000000 ) ;
#161 = EDGE_CURVE ( 'NONE', #235, #64, #227, .T. ) ;
#162 = EDGE_LOOP ( 'NONE', ( #200, #207 ) ) ;
#163 = PRODUCT ( 'e080', 'e080', '', ( #43 ) ) ;
#164 = EDGE_LOOP ( 'NONE', ( #49, #149 ) ) ;
#165 =( GEOMETRIC_REPRESENTATION_CONTEXT ( 3 ) GLOBAL_UNCERTAINTY_ASSIGNED_CONTEXT ( ( #85 ) ) GLOBAL_UNIT_ASSIGNED_CONTEXT ( ( #144, #142, #38 ) ) REPRESENTATION_CONTEXT ( 'NONE', 'WORKASPACE' ) );
#166 = EDGE_LOOP ( 'NONE', ( #238, #60 ) ) ;
#167 = DESIGN_CONTEXT ( 'detailed design', #102, 'design' ) ;
#168 = DIRECTION ( 'NONE',  ( 1.000000000000000000, 0.000000000000000000, 0.000000000000000000 ) ) ;
#169 = AXIS2_PLACEMENT_3D ( 'NONE', #95, #239, #73 ) ;
#170 = DIRECTION ( 'NONE',  ( 0.000000000000000000, 0.000000000000000000, 1.000000000000000000 ) ) ;
#171 = ADVANCED_FACE ( 'NONE', ( #14 ), #122, .T. ) ;
#172 = FACE_OUTER_BOUND ( 'NONE', #162, .T. ) ;
#173 = VECTOR ( 'NONE', #108, 1000.000000000000000 ) ;
#174 = DIRECTION ( 'NONE',  ( -0.000000000000000000, -0.000000000000000000, -1.000000000000000000 ) ) ;
#175 = APPROVAL_ROLE ( '' ) ;
#176 = CARTESIAN_POINT ( 'NONE',  ( 0.000000000000000000, 0.000000000000000000, 0.000000000000000000 ) ) ;
#177 = CARTESIAN_POINT ( 'NONE',  ( -0.5000000000000000000, 0.000000000000000000, 100.0000000000000000 ) ) ;
#178 = EDGE_CURVE ( 'NONE', #233, #156, #130, .T. ) ;
#179 = DATE_AND_TIME ( #74, #27 ) ;
#180 = CARTESIAN_POINT ( 'NONE',  ( 0.5000000000000000000, 6.123233995736766036E-17, 1.199999999999999956 ) ) ;
#181 = LOCAL_TIME ( 15, 34, 46.00000000000000000, #17 ) ;
#182 = DATE_AND_TIME ( #123, #134 ) ;
#183 = VERTEX_POINT ( 'NONE', #159 ) ;
#184 = AXIS2_PLACEMENT_3D ( 'NONE', #33, #57, #16 ) ;
#185 = ORIENTED_EDGE ( 'NONE', *, *, #161, .F. ) ;
#186 = LOCAL_TIME ( 15, 34, 46.00000000000000000, #245 ) ;
#187 = PRODUCT_RELATED_PRODUCT_CATEGORY ( 'detail', '', ( #163 ) ) ;
#188 = CARTESIAN_POINT ( 'NONE',  ( 0.000000000000000000, 0.000000000000000000, 0.000000000000000000 ) ) ;
#189 = DIRECTION ( 'NONE',  ( -1.000000000000000000, 0.000000000000000000, 0.000000000000000000 ) ) ;
#190 = CIRCLE ( 'NONE', #153, 0.5000000000000000000 ) ;
#191 = DIRECTION ( 'NONE',  ( -0.000000000000000000, -0.000000000000000000, -1.000000000000000000 ) ) ;
#192 = EDGE_LOOP ( 'NONE', ( #115, #88 ) ) ;
#193 = AXIS2_PLACEMENT_3D ( 'NONE', #208, #174, #244 ) ;
#194 = CARTESIAN_POINT ( 'NONE',  ( -1.250000000000000000, 0.000000000000000000, 1.199999999999999956 ) ) ;
#195 = PERSON ( 'NEURÈENÝ', 'NEURÈENÝ', 'NEURÈENÝ', ('NEURÈENÝ'), ('NEURÈENÝ'), ('NEURÈENÝ') ) ;
#196 = DATE_AND_TIME ( #242, #202 ) ;
#197 = DIRECTION ( 'NONE',  ( -1.000000000000000000, 0.000000000000000000, 0.000000000000000000 ) ) ;
#198 = AXIS2_PLACEMENT_3D ( 'NONE', #75, #72, #168 ) ;
#199 = DIRECTION ( 'NONE',  ( 0.000000000000000000, 0.000000000000000000, 1.000000000000000000 ) ) ;
#200 = ORIENTED_EDGE ( 'NONE', *, *, #111, .F. ) ;
#201 = EDGE_LOOP ( 'NONE', ( #40, #216, #154, #185 ) ) ;
#202 = LOCAL_TIME ( 15, 34, 46.00000000000000000, #228 ) ;
#203 = EDGE_CURVE ( 'NONE', #2, #183, #3, .T. ) ;
#204 = ORGANIZATION ( 'NEURÈENÝ', 'NEURÈENÝ', '' ) ;
#205 = DIRECTION ( 'NONE',  ( 1.000000000000000000, 0.000000000000000000, 0.000000000000000000 ) ) ;
#206 = DIRECTION ( 'NONE',  ( 0.000000000000000000, 0.000000000000000000, 1.000000000000000000 ) ) ;
#207 = ORIENTED_EDGE ( 'NONE', *, *, #203, .F. ) ;
#208 = CARTESIAN_POINT ( 'NONE',  ( 0.000000000000000000, 0.000000000000000000, 1.199999999999999956 ) ) ;
#209 = APPLICATION_PROTOCOL_DEFINITION ( 'international standard', 'config_control_design', 1994, #84 ) ;
#210 = AXIS2_PLACEMENT_3D ( 'NONE', #176, #15, #121 ) ;
#211 = DATE_AND_TIME ( #137, #181 ) ;
#212 = PERSON_AND_ORGANIZATION ( #195, #204 ) ;
#213 = DIRECTION ( 'NONE',  ( 0.000000000000000000, 0.000000000000000000, 1.000000000000000000 ) ) ;
#214 = ADVANCED_FACE ( 'NONE', ( #225 ), #50, .T. ) ;
#215 = EDGE_LOOP ( 'NONE', ( #22, #147, #7, #128 ) ) ;
#216 = ORIENTED_EDGE ( 'NONE', *, *, #65, .T. ) ;
#217 = CC_DESIGN_PERSON_AND_ORGANIZATION_ASSIGNMENT ( #23, #112, ( #163 ) ) ;
#218 = ORIENTED_EDGE ( 'NONE', *, *, #65, .F. ) ;
#219 = LINE ( 'NONE', #131, #68 ) ;
#220 = MANIFOLD_SOLID_BREP ( 'Pøidat vysunutím3', #12 ) ;
#221 = CARTESIAN_POINT ( 'NONE',  ( 1.250000000000000000, 1.530808498934191571E-16, 1.199999999999999956 ) ) ;
#222 = APPLICATION_PROTOCOL_DEFINITION ( 'international standard', 'config_control_design', 1994, #102 ) ;
#223 = CYLINDRICAL_SURFACE ( 'NONE', #169, 1.250000000000000000 ) ;
#224 = PERSON_AND_ORGANIZATION ( #195, #204 ) ;
#225 = FACE_OUTER_BOUND ( 'NONE', #63, .T. ) ;
#226 = APPROVAL ( #140, 'NEURÈENÝ' ) ;
#227 = LINE ( 'NONE', #252, #58 ) ;
#228 = COORDINATED_UNIVERSAL_TIME_OFFSET ( 1, 0, .AHEAD. ) ;
#229 = CARTESIAN_POINT ( 'NONE',  ( 0.000000000000000000, 0.000000000000000000, 100.0000000000000000 ) ) ;
#230 = COORDINATED_UNIVERSAL_TIME_OFFSET ( 1, 0, .AHEAD. ) ;
#231 = DIRECTION ( 'NONE',  ( 0.000000000000000000, 0.000000000000000000, 1.000000000000000000 ) ) ;
#232 = VERTEX_POINT ( 'NONE', #180 ) ;
#233 = VERTEX_POINT ( 'NONE', #194 ) ;
#234 = AXIS2_PLACEMENT_3D ( 'NONE', #1, #4, #205 ) ;
#235 = VERTEX_POINT ( 'NONE', #177 ) ;
#236 = DIRECTION ( 'NONE',  ( -0.000000000000000000, -0.000000000000000000, -1.000000000000000000 ) ) ;
#237 = ORIENTED_EDGE ( 'NONE', *, *, #9, .F. ) ;
#238 = ORIENTED_EDGE ( 'NONE', *, *, #20, .T. ) ;
#239 = DIRECTION ( 'NONE',  ( -0.000000000000000000, -0.000000000000000000, -1.000000000000000000 ) ) ;
#240 = AXIS2_PLACEMENT_3D ( 'NONE', #150, #206, #28 ) ;
#241 = AXIS2_PLACEMENT_3D ( 'NONE', #82, #101, #138 ) ;
#242 = CALENDAR_DATE ( 2023, 31, 1 ) ;
#243 = PRODUCT_DEFINITION ( 'NEZNÁMÝ', '', #62, #167 ) ;
#244 = DIRECTION ( 'NONE',  ( -1.000000000000000000, 0.000000000000000000, 0.000000000000000000 ) ) ;
#245 = COORDINATED_UNIVERSAL_TIME_OFFSET ( 1, 0, .AHEAD. ) ;
#246 = DIRECTION ( 'NONE',  ( 1.000000000000000000, 0.000000000000000000, 0.000000000000000000 ) ) ;
#247 = ADVANCED_BREP_SHAPE_REPRESENTATION ( 'e080', ( #220, #234 ), #165 ) ;
#248 = DATE_AND_TIME ( #76, #186 ) ;
#249 = LINE ( 'NONE', #253, #173 ) ;
#250 = DATE_TIME_ROLE ( 'classification_date' ) ;
#251 = APPROVAL_ROLE ( '' ) ;
#252 = CARTESIAN_POINT ( 'NONE',  ( -0.5000000000000000000, 0.000000000000000000, 100.0000000000000000 ) ) ;
#253 = CARTESIAN_POINT ( 'NONE',  ( -1.250000000000000000, 0.000000000000000000, 1.199999999999999956 ) ) ;
#254 = EDGE_CURVE ( 'NONE', #232, #64, #146, .T. ) ;
#255 = ORIENTED_EDGE ( 'NONE', *, *, #129, .T. ) ;
ENDSEC;
END-ISO-10303-21;
