ISO-10303-21;
HEADER;
FILE_DESCRIPTION (( 'STEP AP203' ),
    '1' );
FILE_NAME ('3fdb.STEP',
    '2023-02-13T14:36:41',
    ( '' ),
    ( '' ),
    'SwSTEP 2.0',
    'SolidWorks 2019',
    '' );
FILE_SCHEMA (( 'CONFIG_CONTROL_DESIGN' ));
ENDSEC;

DATA;
#1 = DIRECTION ( 'NONE',  ( 0.000000000000000000, 0.000000000000000000, 1.000000000000000000 ) ) ;
#2 = PERSON_AND_ORGANIZATION ( #14, #26 ) ;
#3 = FACE_BOUND ( 'NONE', #55, .T. ) ;
#4 = CARTESIAN_POINT ( 'NONE',  ( 0.000000000000000000, 0.000000000000000000, 3.000000000000000000 ) ) ;
#5 = FACE_OUTER_BOUND ( 'NONE', #13, .T. ) ;
#6 = PRODUCT ( '3fdb', '3fdb', '', ( #57 ) ) ;
#7 = CARTESIAN_POINT ( 'NONE',  ( 0.000000000000000000, 0.000000000000000000, 3.000000000000000000 ) ) ;
#8 = DATE_AND_TIME ( #106, #80 ) ;
#9 = VECTOR ( 'NONE', #196, 1000.000000000000000 ) ;
#10 = DESIGN_CONTEXT ( 'detailed design', #71, 'design' ) ;
#11 = CC_DESIGN_DATE_AND_TIME_ASSIGNMENT ( #204, #91, ( #174 ) ) ;
#12 = MANIFOLD_SOLID_BREP ( 'Pøidat vysunutím3', #185 ) ;
#13 = EDGE_LOOP ( 'NONE', ( #225, #97 ) ) ;
#14 = PERSON ( 'NEURÈENÝ', 'NEURÈENÝ', 'NEURÈENÝ', ('NEURÈENÝ'), ('NEURÈENÝ'), ('NEURÈENÝ') ) ;
#15 = ORIENTED_EDGE ( 'NONE', *, *, #161, .F. ) ;
#16 = AXIS2_PLACEMENT_3D ( 'NONE', #75, #33, #150 ) ;
#17 = DIRECTION ( 'NONE',  ( -0.000000000000000000, -0.000000000000000000, -1.000000000000000000 ) ) ;
#18 = LOCAL_TIME ( 15, 36, 41.00000000000000000, #56 ) ;
#19 = ADVANCED_FACE ( 'NONE', ( #107 ), #148, .T. ) ;
#20 = DIRECTION ( 'NONE',  ( 1.000000000000000000, 0.000000000000000000, 0.000000000000000000 ) ) ;
#21 =( NAMED_UNIT ( * ) PLANE_ANGLE_UNIT ( ) SI_UNIT ( $, .RADIAN. ) );
#22 = CIRCLE ( 'NONE', #173, 5.000000000000000000 ) ;
#23 = CARTESIAN_POINT ( 'NONE',  ( 0.000000000000000000, 0.000000000000000000, 3.000000000000000000 ) ) ;
#24 = CARTESIAN_POINT ( 'NONE',  ( 2.500000000000000000, 3.061616997868382648E-16, 500.0000000000000000 ) ) ;
#25 = APPROVAL ( #157, 'NEURÈENÝ' ) ;
#26 = ORGANIZATION ( 'NEURÈENÝ', 'NEURÈENÝ', '' ) ;
#27 = COORDINATED_UNIVERSAL_TIME_OFFSET ( 1, 0, .AHEAD. ) ;
#28 = CALENDAR_DATE ( 2023, 13, 2 ) ;
#29 = APPROVAL ( #191, 'NEURÈENÝ' ) ;
#30 = ORIENTED_EDGE ( 'NONE', *, *, #169, .T. ) ;
#31 = EDGE_CURVE ( 'NONE', #77, #102, #234, .T. ) ;
#32 = DIRECTION ( 'NONE',  ( -0.000000000000000000, -0.000000000000000000, -1.000000000000000000 ) ) ;
#33 = DIRECTION ( 'NONE',  ( 0.000000000000000000, 0.000000000000000000, 1.000000000000000000 ) ) ;
#34 = LOCAL_TIME ( 15, 36, 41.00000000000000000, #201 ) ;
#35 = APPROVAL_DATE_TIME ( #170, #25 ) ;
#36 = LINE ( 'NONE', #220, #62 ) ;
#37 = CIRCLE ( 'NONE', #209, 2.500000000000000000 ) ;
#38 = ORIENTED_EDGE ( 'NONE', *, *, #31, .F. ) ;
#39 = DIRECTION ( 'NONE',  ( 1.000000000000000000, 0.000000000000000000, -0.000000000000000000 ) ) ;
#40 = EDGE_CURVE ( 'NONE', #123, #151, #99, .T. ) ;
#41 = EDGE_LOOP ( 'NONE', ( #15, #65, #240, #67 ) ) ;
#42 = FACE_OUTER_BOUND ( 'NONE', #61, .T. ) ;
#43 = DIRECTION ( 'NONE',  ( 1.000000000000000000, 0.000000000000000000, 0.000000000000000000 ) ) ;
#44 = CC_DESIGN_PERSON_AND_ORGANIZATION_ASSIGNMENT ( #73, #130, ( #167 ) ) ;
#45 = DIRECTION ( 'NONE',  ( -1.000000000000000000, 0.000000000000000000, 0.000000000000000000 ) ) ;
#46 = AXIS2_PLACEMENT_3D ( 'NONE', #214, #48, #43 ) ;
#47 = DIRECTION ( 'NONE',  ( 0.000000000000000000, 0.000000000000000000, 1.000000000000000000 ) ) ;
#48 = DIRECTION ( 'NONE',  ( 0.000000000000000000, 0.000000000000000000, 1.000000000000000000 ) ) ;
#49 = CARTESIAN_POINT ( 'NONE',  ( 0.000000000000000000, 0.000000000000000000, 3.000000000000000000 ) ) ;
#50 = PERSON_AND_ORGANIZATION ( #14, #26 ) ;
#51 = CC_DESIGN_PERSON_AND_ORGANIZATION_ASSIGNMENT ( #114, #115, ( #174 ) ) ;
#52 = CARTESIAN_POINT ( 'NONE',  ( -2.500000000000000000, 0.000000000000000000, 500.0000000000000000 ) ) ;
#53 = AXIS2_PLACEMENT_3D ( 'NONE', #23, #66, #98 ) ;
#54 = APPLICATION_PROTOCOL_DEFINITION ( 'international standard', 'config_control_design', 1994, #253 ) ;
#55 = EDGE_LOOP ( 'NONE', ( #79, #152 ) ) ;
#56 = COORDINATED_UNIVERSAL_TIME_OFFSET ( 1, 0, .AHEAD. ) ;
#57 = MECHANICAL_CONTEXT ( 'NONE', #253, 'mechanical' ) ;
#58 = APPROVAL ( #146, 'NEURÈENÝ' ) ;
#59 = VERTEX_POINT ( 'NONE', #203 ) ;
#60 = DIRECTION ( 'NONE',  ( -1.000000000000000000, 0.000000000000000000, 0.000000000000000000 ) ) ;
#61 = EDGE_LOOP ( 'NONE', ( #202, #211, #121, #38 ) ) ;
#62 = VECTOR ( 'NONE', #32, 1000.000000000000000 ) ;
#63 = ORIENTED_EDGE ( 'NONE', *, *, #231, .F. ) ;
#64 = CARTESIAN_POINT ( 'NONE',  ( 0.000000000000000000, 0.000000000000000000, 500.0000000000000000 ) ) ;
#65 = ORIENTED_EDGE ( 'NONE', *, *, #138, .F. ) ;
#66 = DIRECTION ( 'NONE',  ( 0.000000000000000000, 0.000000000000000000, 1.000000000000000000 ) ) ;
#67 = ORIENTED_EDGE ( 'NONE', *, *, #40, .T. ) ;
#68 = SHAPE_DEFINITION_REPRESENTATION ( #223, #182 ) ;
#69 = LINE ( 'NONE', #243, #153 ) ;
#70 = AXIS2_PLACEMENT_3D ( 'NONE', #112, #47, #129 ) ;
#71 = APPLICATION_CONTEXT ( 'configuration controlled 3d designs of mechanical parts and assemblies' ) ;
#72 = VECTOR ( 'NONE', #103, 1000.000000000000000 ) ;
#73 = PERSON_AND_ORGANIZATION ( #14, #26 ) ;
#74 = DATE_AND_TIME ( #28, #90 ) ;
#75 = CARTESIAN_POINT ( 'NONE',  ( 0.000000000000000000, 0.000000000000000000, 0.000000000000000000 ) ) ;
#76 = CC_DESIGN_PERSON_AND_ORGANIZATION_ASSIGNMENT ( #136, #181, ( #6 ) ) ;
#77 = VERTEX_POINT ( 'NONE', #135 ) ;
#78 = DIRECTION ( 'NONE',  ( 1.000000000000000000, 0.000000000000000000, 0.000000000000000000 ) ) ;
#79 = ORIENTED_EDGE ( 'NONE', *, *, #96, .F. ) ;
#80 = LOCAL_TIME ( 15, 36, 41.00000000000000000, #247 ) ;
#81 = ORIENTED_EDGE ( 'NONE', *, *, #154, .T. ) ;
#82 = DIRECTION ( 'NONE',  ( 0.000000000000000000, 0.000000000000000000, 1.000000000000000000 ) ) ;
#83 = EDGE_CURVE ( 'NONE', #126, #254, #36, .T. ) ;
#84 = FACE_OUTER_BOUND ( 'NONE', #134, .T. ) ;
#85 = APPROVAL_PERSON_ORGANIZATION ( #164, #29, #166 ) ;
#86 = CARTESIAN_POINT ( 'NONE',  ( 0.000000000000000000, 0.000000000000000000, 0.000000000000000000 ) ) ;
#87 = DIRECTION ( 'NONE',  ( 1.000000000000000000, 0.000000000000000000, 0.000000000000000000 ) ) ;
#88 = CARTESIAN_POINT ( 'NONE',  ( 0.000000000000000000, 0.000000000000000000, 500.0000000000000000 ) ) ;
#89 = DIRECTION ( 'NONE',  ( -0.000000000000000000, -0.000000000000000000, -1.000000000000000000 ) ) ;
#90 = LOCAL_TIME ( 15, 36, 41.00000000000000000, #27 ) ;
#91 = DATE_TIME_ROLE ( 'creation_date' ) ;
#92 = SECURITY_CLASSIFICATION_LEVEL ( 'unclassified' ) ;
#93 = CC_DESIGN_DATE_AND_TIME_ASSIGNMENT ( #195, #255, ( #167 ) ) ;
#94 = APPROVAL_PERSON_ORGANIZATION ( #50, #58, #145 ) ;
#95 = DIRECTION ( 'NONE',  ( 0.000000000000000000, 0.000000000000000000, 1.000000000000000000 ) ) ;
#96 = EDGE_CURVE ( 'NONE', #102, #254, #139, .T. ) ;
#97 = ORIENTED_EDGE ( 'NONE', *, *, #218, .T. ) ;
#98 = DIRECTION ( 'NONE',  ( 1.000000000000000000, 0.000000000000000000, 0.000000000000000000 ) ) ;
#99 = CIRCLE ( 'NONE', #16, 5.000000000000000000 ) ;
#100 = PLANE ( 'NONE',  #163 ) ;
#101 = AXIS2_PLACEMENT_3D ( 'NONE', #49, #17, #207 ) ;
#102 = VERTEX_POINT ( 'NONE', #230 ) ;
#103 = DIRECTION ( 'NONE',  ( -0.000000000000000000, -0.000000000000000000, -1.000000000000000000 ) ) ;
#104 = ADVANCED_FACE ( 'NONE', ( #251 ), #105, .T. ) ;
#105 = CYLINDRICAL_SURFACE ( 'NONE', #117, 5.000000000000000000 ) ;
#106 = CALENDAR_DATE ( 2023, 13, 2 ) ;
#107 = FACE_OUTER_BOUND ( 'NONE', #244, .T. ) ;
#108 = FACE_OUTER_BOUND ( 'NONE', #149, .T. ) ;
#109 = LOCAL_TIME ( 15, 36, 41.00000000000000000, #175 ) ;
#110 = CC_DESIGN_APPROVAL ( #58, ( #167 ) ) ;
#111 = ORIENTED_EDGE ( 'NONE', *, *, #31, .T. ) ;
#112 = CARTESIAN_POINT ( 'NONE',  ( 0.000000000000000000, 0.000000000000000000, 500.0000000000000000 ) ) ;
#113 = APPROVAL_ROLE ( '' ) ;
#114 = PERSON_AND_ORGANIZATION ( #14, #26 ) ;
#115 = PERSON_AND_ORGANIZATION_ROLE ( 'creator' ) ;
#116 = AXIS2_PLACEMENT_3D ( 'NONE', #7, #232, #87 ) ;
#117 = AXIS2_PLACEMENT_3D ( 'NONE', #189, #89, #45 ) ;
#118 = EDGE_LOOP ( 'NONE', ( #200, #119 ) ) ;
#119 = ORIENTED_EDGE ( 'NONE', *, *, #169, .F. ) ;
#120 = EDGE_CURVE ( 'NONE', #126, #77, #199, .T. ) ;
#121 = ORIENTED_EDGE ( 'NONE', *, *, #246, .T. ) ;
#122 = DIRECTION ( 'NONE',  ( 1.000000000000000000, 0.000000000000000000, -0.000000000000000000 ) ) ;
#123 = VERTEX_POINT ( 'NONE', #165 ) ;
#124 = CARTESIAN_POINT ( 'NONE',  ( 0.000000000000000000, 0.000000000000000000, 0.000000000000000000 ) ) ;
#125 = DIRECTION ( 'NONE',  ( 0.000000000000000000, 0.000000000000000000, 1.000000000000000000 ) ) ;
#126 = VERTEX_POINT ( 'NONE', #24 ) ;
#127 = PERSON_AND_ORGANIZATION ( #14, #26 ) ;
#128 = DIRECTION ( 'NONE',  ( -0.000000000000000000, -0.000000000000000000, -1.000000000000000000 ) ) ;
#129 = DIRECTION ( 'NONE',  ( 1.000000000000000000, 0.000000000000000000, -0.000000000000000000 ) ) ;
#130 = PERSON_AND_ORGANIZATION_ROLE ( 'classification_officer' ) ;
#131 = ADVANCED_FACE ( 'NONE', ( #108 ), #192, .T. ) ;
#132 = APPROVAL_PERSON_ORGANIZATION ( #2, #25, #113 ) ;
#133 = AXIS2_PLACEMENT_3D ( 'NONE', #239, #184, #141 ) ;
#134 = EDGE_LOOP ( 'NONE', ( #228, #238, #30, #63 ) ) ;
#135 = CARTESIAN_POINT ( 'NONE',  ( -2.500000000000000000, 0.000000000000000000, 500.0000000000000000 ) ) ;
#136 = PERSON_AND_ORGANIZATION ( #14, #26 ) ;
#137 = DIRECTION ( 'NONE',  ( 0.000000000000000000, 0.000000000000000000, 1.000000000000000000 ) ) ;
#138 = EDGE_CURVE ( 'NONE', #59, #140, #22, .T. ) ;
#139 = CIRCLE ( 'NONE', #46, 2.500000000000000000 ) ;
#140 = VERTEX_POINT ( 'NONE', #241 ) ;
#141 = DIRECTION ( 'NONE',  ( -1.000000000000000000, 0.000000000000000000, 0.000000000000000000 ) ) ;
#142 = ORIENTED_EDGE ( 'NONE', *, *, #96, .T. ) ;
#143 = CARTESIAN_POINT ( 'NONE',  ( 0.000000000000000000, 0.000000000000000000, 500.0000000000000000 ) ) ;
#144 = CARTESIAN_POINT ( 'NONE',  ( 0.000000000000000000, 0.000000000000000000, 3.000000000000000000 ) ) ;
#145 = APPROVAL_ROLE ( '' ) ;
#146 = APPROVAL_STATUS ( 'not_yet_approved' ) ;
#147 = PLANE ( 'NONE',  #206 ) ;
#148 = PLANE ( 'NONE',  #70 ) ;
#149 = EDGE_LOOP ( 'NONE', ( #155, #187, #111, #142 ) ) ;
#150 = DIRECTION ( 'NONE',  ( 1.000000000000000000, 0.000000000000000000, 0.000000000000000000 ) ) ;
#151 = VERTEX_POINT ( 'NONE', #180 ) ;
#152 = ORIENTED_EDGE ( 'NONE', *, *, #246, .F. ) ;
#153 = VECTOR ( 'NONE', #208, 1000.000000000000000 ) ;
#154 = EDGE_CURVE ( 'NONE', #77, #126, #37, .T. ) ;
#155 = ORIENTED_EDGE ( 'NONE', *, *, #83, .F. ) ;
#156 = DIRECTION ( 'NONE',  ( 1.000000000000000000, 0.000000000000000000, 0.000000000000000000 ) ) ;
#157 = APPROVAL_STATUS ( 'not_yet_approved' ) ;
#158 =( LENGTH_UNIT ( ) NAMED_UNIT ( * ) SI_UNIT ( .MILLI., .METRE. ) );
#159 = CALENDAR_DATE ( 2023, 13, 2 ) ;
#160 = DIRECTION ( 'NONE',  ( 0.000000000000000000, 0.000000000000000000, 1.000000000000000000 ) ) ;
#161 = EDGE_CURVE ( 'NONE', #140, #151, #69, .T. ) ;
#162 = ORIENTED_EDGE ( 'NONE', *, *, #120, .T. ) ;
#163 = AXIS2_PLACEMENT_3D ( 'NONE', #86, #137, #39 ) ;
#164 = PERSON_AND_ORGANIZATION ( #14, #26 ) ;
#165 = CARTESIAN_POINT ( 'NONE',  ( -5.000000000000000000, 0.000000000000000000, 0.000000000000000000 ) ) ;
#166 = APPROVAL_ROLE ( '' ) ;
#167 = SECURITY_CLASSIFICATION ( '', '', #92 ) ;
#168 = DIRECTION ( 'NONE',  ( 0.000000000000000000, 0.000000000000000000, 1.000000000000000000 ) ) ;
#169 = EDGE_CURVE ( 'NONE', #151, #123, #193, .T. ) ;
#170 = DATE_AND_TIME ( #177, #18 ) ;
#171 = CYLINDRICAL_SURFACE ( 'NONE', #101, 5.000000000000000000 ) ;
#172 = PERSON_AND_ORGANIZATION ( #14, #26 ) ;
#173 = AXIS2_PLACEMENT_3D ( 'NONE', #4, #160, #245 ) ;
#174 = PRODUCT_DEFINITION ( 'NEZNÁMÝ', '', #176, #10 ) ;
#175 = COORDINATED_UNIVERSAL_TIME_OFFSET ( 1, 0, .AHEAD. ) ;
#176 = PRODUCT_DEFINITION_FORMATION_WITH_SPECIFIED_SOURCE ( 'LIBOVOLNÝ', '', #6, .NOT_KNOWN. ) ;
#177 = CALENDAR_DATE ( 2023, 13, 2 ) ;
#178 = AXIS2_PLACEMENT_3D ( 'NONE', #88, #168, #213 ) ;
#179 = ADVANCED_FACE ( 'NONE', ( #42 ), #186, .T. ) ;
#180 = CARTESIAN_POINT ( 'NONE',  ( 5.000000000000000000, 6.123233995736766282E-16, 0.000000000000000000 ) ) ;
#181 = PERSON_AND_ORGANIZATION_ROLE ( 'design_owner' ) ;
#182 = ADVANCED_BREP_SHAPE_REPRESENTATION ( '3fdb', ( #12, #252 ), #248 ) ;
#183 = PERSON_AND_ORGANIZATION_ROLE ( 'creator' ) ;
#184 = DIRECTION ( 'NONE',  ( -0.000000000000000000, -0.000000000000000000, -1.000000000000000000 ) ) ;
#185 = CLOSED_SHELL ( 'NONE', ( #179, #250, #104, #222, #212, #131, #19 ) ) ;
#186 = CYLINDRICAL_SURFACE ( 'NONE', #216, 2.500000000000000000 ) ;
#187 = ORIENTED_EDGE ( 'NONE', *, *, #154, .F. ) ;
#188 = LINE ( 'NONE', #227, #72 ) ;
#189 = CARTESIAN_POINT ( 'NONE',  ( 0.000000000000000000, 0.000000000000000000, 3.000000000000000000 ) ) ;
#190 = AXIS2_PLACEMENT_3D ( 'NONE', #124, #82, #156 ) ;
#191 = APPROVAL_STATUS ( 'not_yet_approved' ) ;
#192 = CYLINDRICAL_SURFACE ( 'NONE', #133, 2.500000000000000000 ) ;
#193 = CIRCLE ( 'NONE', #190, 5.000000000000000000 ) ;
#194 = APPROVAL_DATE_TIME ( #74, #29 ) ;
#195 = DATE_AND_TIME ( #217, #109 ) ;
#196 = DIRECTION ( 'NONE',  ( -0.000000000000000000, -0.000000000000000000, -1.000000000000000000 ) ) ;
#197 = CARTESIAN_POINT ( 'NONE',  ( 0.000000000000000000, 0.000000000000000000, 0.000000000000000000 ) ) ;
#198 = CC_DESIGN_PERSON_AND_ORGANIZATION_ASSIGNMENT ( #172, #235, ( #176 ) ) ;
#199 = CIRCLE ( 'NONE', #178, 2.500000000000000000 ) ;
#200 = ORIENTED_EDGE ( 'NONE', *, *, #40, .F. ) ;
#201 = COORDINATED_UNIVERSAL_TIME_OFFSET ( 1, 0, .AHEAD. ) ;
#202 = ORIENTED_EDGE ( 'NONE', *, *, #120, .F. ) ;
#203 = CARTESIAN_POINT ( 'NONE',  ( -5.000000000000000000, 0.000000000000000000, 3.000000000000000000 ) ) ;
#204 = DATE_AND_TIME ( #159, #34 ) ;
#205 = PRODUCT_RELATED_PRODUCT_CATEGORY ( 'detail', '', ( #6 ) ) ;
#206 = AXIS2_PLACEMENT_3D ( 'NONE', #144, #125, #122 ) ;
#207 = DIRECTION ( 'NONE',  ( -1.000000000000000000, 0.000000000000000000, 0.000000000000000000 ) ) ;
#208 = DIRECTION ( 'NONE',  ( -0.000000000000000000, -0.000000000000000000, -1.000000000000000000 ) ) ;
#209 = AXIS2_PLACEMENT_3D ( 'NONE', #143, #1, #20 ) ;
#210 = CC_DESIGN_APPROVAL ( #25, ( #174 ) ) ;
#211 = ORIENTED_EDGE ( 'NONE', *, *, #83, .T. ) ;
#212 = ADVANCED_FACE ( 'NONE', ( #226 ), #100, .F. ) ;
#213 = DIRECTION ( 'NONE',  ( 1.000000000000000000, 0.000000000000000000, 0.000000000000000000 ) ) ;
#214 = CARTESIAN_POINT ( 'NONE',  ( 0.000000000000000000, 0.000000000000000000, 3.000000000000000000 ) ) ;
#215 = CC_DESIGN_APPROVAL ( #29, ( #176 ) ) ;
#216 = AXIS2_PLACEMENT_3D ( 'NONE', #64, #128, #60 ) ;
#217 = CALENDAR_DATE ( 2023, 13, 2 ) ;
#218 = EDGE_CURVE ( 'NONE', #140, #59, #221, .T. ) ;
#219 = APPLICATION_PROTOCOL_DEFINITION ( 'international standard', 'config_control_design', 1994, #71 ) ;
#220 = CARTESIAN_POINT ( 'NONE',  ( 2.500000000000000000, 3.061616997868382648E-16, 500.0000000000000000 ) ) ;
#221 = CIRCLE ( 'NONE', #53, 5.000000000000000000 ) ;
#222 = ADVANCED_FACE ( 'NONE', ( #3, #5 ), #147, .T. ) ;
#223 = PRODUCT_DEFINITION_SHAPE ( 'NONE', 'NONE',  #174 ) ;
#224 = CARTESIAN_POINT ( 'NONE',  ( 2.500000000000000000, 3.061616997868382648E-16, 3.000000000000000000 ) ) ;
#225 = ORIENTED_EDGE ( 'NONE', *, *, #138, .T. ) ;
#226 = FACE_OUTER_BOUND ( 'NONE', #118, .T. ) ;
#227 = CARTESIAN_POINT ( 'NONE',  ( -5.000000000000000000, 0.000000000000000000, 3.000000000000000000 ) ) ;
#228 = ORIENTED_EDGE ( 'NONE', *, *, #218, .F. ) ;
#229 = UNCERTAINTY_MEASURE_WITH_UNIT (LENGTH_MEASURE( 1.000000000000000082E-05 ), #158, 'distance_accuracy_value', 'NONE');
#230 = CARTESIAN_POINT ( 'NONE',  ( -2.500000000000000000, 0.000000000000000000, 3.000000000000000000 ) ) ;
#231 = EDGE_CURVE ( 'NONE', #59, #123, #188, .T. ) ;
#232 = DIRECTION ( 'NONE',  ( 0.000000000000000000, 0.000000000000000000, 1.000000000000000000 ) ) ;
#233 = CC_DESIGN_SECURITY_CLASSIFICATION ( #167, ( #176 ) ) ;
#234 = LINE ( 'NONE', #52, #9 ) ;
#235 = PERSON_AND_ORGANIZATION_ROLE ( 'design_supplier' ) ;
#236 = CIRCLE ( 'NONE', #116, 2.500000000000000000 ) ;
#237 =( NAMED_UNIT ( * ) SI_UNIT ( $, .STERADIAN. ) SOLID_ANGLE_UNIT ( ) );
#238 = ORIENTED_EDGE ( 'NONE', *, *, #161, .T. ) ;
#239 = CARTESIAN_POINT ( 'NONE',  ( 0.000000000000000000, 0.000000000000000000, 500.0000000000000000 ) ) ;
#240 = ORIENTED_EDGE ( 'NONE', *, *, #231, .T. ) ;
#241 = CARTESIAN_POINT ( 'NONE',  ( 5.000000000000000000, 6.123233995736766282E-16, 3.000000000000000000 ) ) ;
#242 = CC_DESIGN_PERSON_AND_ORGANIZATION_ASSIGNMENT ( #127, #183, ( #176 ) ) ;
#243 = CARTESIAN_POINT ( 'NONE',  ( 5.000000000000000000, 6.123233995736766282E-16, 3.000000000000000000 ) ) ;
#244 = EDGE_LOOP ( 'NONE', ( #81, #162 ) ) ;
#245 = DIRECTION ( 'NONE',  ( 1.000000000000000000, 0.000000000000000000, 0.000000000000000000 ) ) ;
#246 = EDGE_CURVE ( 'NONE', #254, #102, #236, .T. ) ;
#247 = COORDINATED_UNIVERSAL_TIME_OFFSET ( 1, 0, .AHEAD. ) ;
#248 =( GEOMETRIC_REPRESENTATION_CONTEXT ( 3 ) GLOBAL_UNCERTAINTY_ASSIGNED_CONTEXT ( ( #229 ) ) GLOBAL_UNIT_ASSIGNED_CONTEXT ( ( #158, #21, #237 ) ) REPRESENTATION_CONTEXT ( 'NONE', 'WORKASPACE' ) );
#249 = APPROVAL_DATE_TIME ( #8, #58 ) ;
#250 = ADVANCED_FACE ( 'NONE', ( #84 ), #171, .T. ) ;
#251 = FACE_OUTER_BOUND ( 'NONE', #41, .T. ) ;
#252 = AXIS2_PLACEMENT_3D ( 'NONE', #197, #95, #78 ) ;
#253 = APPLICATION_CONTEXT ( 'configuration controlled 3d designs of mechanical parts and assemblies' ) ;
#254 = VERTEX_POINT ( 'NONE', #224 ) ;
#255 = DATE_TIME_ROLE ( 'classification_date' ) ;
ENDSEC;
END-ISO-10303-21;
