ISO-10303-21;
HEADER;
FILE_DESCRIPTION (( 'STEP AP203' ),
    '1' );
FILE_NAME ('7b6d.STEP',
    '2022-12-12T16:17:28',
    ( '' ),
    ( '' ),
    'SwSTEP 2.0',
    'SolidWorks 2019',
    '' );
FILE_SCHEMA (( 'CONFIG_CONTROL_DESIGN' ));
ENDSEC;

DATA;
#1 = DIRECTION ( 'NONE',  ( 0.000000000000000000, 0.000000000000000000, 1.000000000000000000 ) ) ;
#2 = DIRECTION ( 'NONE',  ( 1.000000000000000000, 0.000000000000000000, -0.000000000000000000 ) ) ;
#3 = AXIS2_PLACEMENT_3D ( 'NONE', #109, #1, #107 ) ;
#4 = EDGE_CURVE ( 'NONE', #82, #252, #236, .T. ) ;
#5 = DIRECTION ( 'NONE',  ( 0.000000000000000000, 0.000000000000000000, 1.000000000000000000 ) ) ;
#6 = CARTESIAN_POINT ( 'NONE',  ( 0.000000000000000000, 0.000000000000000000, 115.0000000000000000 ) ) ;
#7 = PERSON_AND_ORGANIZATION_ROLE ( 'design_owner' ) ;
#8 = EDGE_CURVE ( 'NONE', #247, #60, #191, .T. ) ;
#9 = APPROVAL_STATUS ( 'not_yet_approved' ) ;
#10 = DIRECTION ( 'NONE',  ( 0.000000000000000000, 0.000000000000000000, 1.000000000000000000 ) ) ;
#11 = CALENDAR_DATE ( 2022, 12, 12 ) ;
#12 = UNCERTAINTY_MEASURE_WITH_UNIT (LENGTH_MEASURE( 1.000000000000000082E-05 ), #35, 'distance_accuracy_value', 'NONE');
#13 = CIRCLE ( 'NONE', #41, 5.000000000000000888 ) ;
#14 = PERSON_AND_ORGANIZATION_ROLE ( 'design_supplier' ) ;
#15 =( GEOMETRIC_REPRESENTATION_CONTEXT ( 3 ) GLOBAL_UNCERTAINTY_ASSIGNED_CONTEXT ( ( #12 ) ) GLOBAL_UNIT_ASSIGNED_CONTEXT ( ( #35, #30, #55 ) ) REPRESENTATION_CONTEXT ( 'NONE', 'WORKASPACE' ) );
#16 = ORIENTED_EDGE ( 'NONE', *, *, #90, .F. ) ;
#17 = CC_DESIGN_PERSON_AND_ORGANIZATION_ASSIGNMENT ( #75, #14, ( #178 ) ) ;
#18 = AXIS2_PLACEMENT_3D ( 'NONE', #214, #38, #119 ) ;
#19 = APPROVAL_ROLE ( '' ) ;
#20 = ORIENTED_EDGE ( 'NONE', *, *, #192, .T. ) ;
#21 = ORIENTED_EDGE ( 'NONE', *, *, #157, .T. ) ;
#22 = ORIENTED_EDGE ( 'NONE', *, *, #8, .F. ) ;
#23 = ORIENTED_EDGE ( 'NONE', *, *, #4, .F. ) ;
#24 = FACE_OUTER_BOUND ( 'NONE', #57, .T. ) ;
#25 = DIRECTION ( 'NONE',  ( -0.000000000000000000, -0.000000000000000000, -1.000000000000000000 ) ) ;
#26 = ADVANCED_FACE ( 'NONE', ( #81 ), #121, .T. ) ;
#27 = CARTESIAN_POINT ( 'NONE',  ( 0.000000000000000000, 0.000000000000000000, 5.000000000000000000 ) ) ;
#28 = AXIS2_PLACEMENT_3D ( 'NONE', #162, #239, #91 ) ;
#29 = CARTESIAN_POINT ( 'NONE',  ( 5.000000000000000888, 6.123233995736767268E-16, 115.0000000000000000 ) ) ;
#30 =( NAMED_UNIT ( * ) PLANE_ANGLE_UNIT ( ) SI_UNIT ( $, .RADIAN. ) );
#31 = CALENDAR_DATE ( 2022, 12, 12 ) ;
#32 = APPROVAL_DATE_TIME ( #207, #139 ) ;
#33 = PERSON_AND_ORGANIZATION_ROLE ( 'creator' ) ;
#34 = MANIFOLD_SOLID_BREP ( 'Pøidat vysunutím3', #117 ) ;
#35 =( LENGTH_UNIT ( ) NAMED_UNIT ( * ) SI_UNIT ( .MILLI., .METRE. ) );
#36 = AXIS2_PLACEMENT_3D ( 'NONE', #183, #127, #144 ) ;
#37 = EDGE_LOOP ( 'NONE', ( #23, #217 ) ) ;
#38 = DIRECTION ( 'NONE',  ( 0.000000000000000000, 0.000000000000000000, 1.000000000000000000 ) ) ;
#39 = EDGE_LOOP ( 'NONE', ( #142, #103, #20, #22 ) ) ;
#40 = ADVANCED_FACE ( 'NONE', ( #102 ), #86, .T. ) ;
#41 = AXIS2_PLACEMENT_3D ( 'NONE', #143, #234, #48 ) ;
#42 = ORIENTED_EDGE ( 'NONE', *, *, #249, .F. ) ;
#43 = ORIENTED_EDGE ( 'NONE', *, *, #241, .T. ) ;
#44 = CARTESIAN_POINT ( 'NONE',  ( 8.000000000000000000, 9.797174393178825657E-16, 5.000000000000000000 ) ) ;
#45 = DIRECTION ( 'NONE',  ( 1.000000000000000000, 0.000000000000000000, 0.000000000000000000 ) ) ;
#46 = DIRECTION ( 'NONE',  ( 0.000000000000000000, 0.000000000000000000, 1.000000000000000000 ) ) ;
#47 = CYLINDRICAL_SURFACE ( 'NONE', #89, 8.000000000000000000 ) ;
#48 = DIRECTION ( 'NONE',  ( 1.000000000000000000, 0.000000000000000000, 0.000000000000000000 ) ) ;
#49 = COORDINATED_UNIVERSAL_TIME_OFFSET ( 1, 0, .AHEAD. ) ;
#50 = APPROVAL_ROLE ( '' ) ;
#51 = DATE_AND_TIME ( #226, #224 ) ;
#52 = PRODUCT_DEFINITION ( 'NEZNÁMÝ', '', #178, #74 ) ;
#53 = AXIS2_PLACEMENT_3D ( 'NONE', #182, #5, #2 ) ;
#54 = APPROVAL_STATUS ( 'not_yet_approved' ) ;
#55 =( NAMED_UNIT ( * ) SI_UNIT ( $, .STERADIAN. ) SOLID_ANGLE_UNIT ( ) );
#56 = CIRCLE ( 'NONE', #227, 8.000000000000000000 ) ;
#57 = EDGE_LOOP ( 'NONE', ( #230, #232 ) ) ;
#58 = DIRECTION ( 'NONE',  ( -0.000000000000000000, -0.000000000000000000, -1.000000000000000000 ) ) ;
#59 = CALENDAR_DATE ( 2022, 12, 12 ) ;
#60 = VERTEX_POINT ( 'NONE', #223 ) ;
#61 = CIRCLE ( 'NONE', #233, 8.000000000000000000 ) ;
#62 = ORIENTED_EDGE ( 'NONE', *, *, #168, .F. ) ;
#63 = DIRECTION ( 'NONE',  ( -1.000000000000000000, 0.000000000000000000, 0.000000000000000000 ) ) ;
#64 = CC_DESIGN_DATE_AND_TIME_ASSIGNMENT ( #245, #111, ( #52 ) ) ;
#65 = PLANE ( 'NONE',  #36 ) ;
#66 = CIRCLE ( 'NONE', #94, 8.000000000000000000 ) ;
#67 = APPROVAL_PERSON_ORGANIZATION ( #93, #70, #50 ) ;
#68 = DIRECTION ( 'NONE',  ( 1.000000000000000000, 0.000000000000000000, -0.000000000000000000 ) ) ;
#69 = DIRECTION ( 'NONE',  ( -1.000000000000000000, 0.000000000000000000, 0.000000000000000000 ) ) ;
#70 = APPROVAL ( #171, 'NEURÈENÝ' ) ;
#71 = CARTESIAN_POINT ( 'NONE',  ( -5.000000000000000888, 0.000000000000000000, 115.0000000000000000 ) ) ;
#72 = CC_DESIGN_APPROVAL ( #139, ( #178 ) ) ;
#73 = PERSON_AND_ORGANIZATION ( #126, #138 ) ;
#74 = DESIGN_CONTEXT ( 'detailed design', #132, 'design' ) ;
#75 = PERSON_AND_ORGANIZATION ( #126, #138 ) ;
#76 = PERSON_AND_ORGANIZATION ( #126, #138 ) ;
#77 = CARTESIAN_POINT ( 'NONE',  ( 0.000000000000000000, 0.000000000000000000, 0.000000000000000000 ) ) ;
#78 = EDGE_LOOP ( 'NONE', ( #158, #196, #248, #229 ) ) ;
#79 = EDGE_LOOP ( 'NONE', ( #16, #62, #43, #140 ) ) ;
#80 = CC_DESIGN_SECURITY_CLASSIFICATION ( #169, ( #178 ) ) ;
#81 = FACE_OUTER_BOUND ( 'NONE', #79, .T. ) ;
#82 = VERTEX_POINT ( 'NONE', #146 ) ;
#83 = AXIS2_PLACEMENT_3D ( 'NONE', #159, #58, #194 ) ;
#84 = ORIENTED_EDGE ( 'NONE', *, *, #249, .T. ) ;
#85 = LOCAL_TIME ( 17, 17, 28.00000000000000000, #154 ) ;
#86 = CYLINDRICAL_SURFACE ( 'NONE', #243, 5.000000000000000888 ) ;
#87 = LINE ( 'NONE', #29, #197 ) ;
#88 = DIRECTION ( 'NONE',  ( -0.000000000000000000, -0.000000000000000000, -1.000000000000000000 ) ) ;
#89 = AXIS2_PLACEMENT_3D ( 'NONE', #238, #220, #125 ) ;
#90 = EDGE_CURVE ( 'NONE', #254, #252, #87, .T. ) ;
#91 = DIRECTION ( 'NONE',  ( 1.000000000000000000, 0.000000000000000000, 0.000000000000000000 ) ) ;
#92 = CARTESIAN_POINT ( 'NONE',  ( 0.000000000000000000, 0.000000000000000000, 5.000000000000000000 ) ) ;
#93 = PERSON_AND_ORGANIZATION ( #126, #138 ) ;
#94 = AXIS2_PLACEMENT_3D ( 'NONE', #27, #163, #148 ) ;
#95 = CALENDAR_DATE ( 2022, 12, 12 ) ;
#96 = CARTESIAN_POINT ( 'NONE',  ( 5.000000000000000888, 6.123233995736767268E-16, 5.000000000000000000 ) ) ;
#97 = DATE_TIME_ROLE ( 'classification_date' ) ;
#98 = AXIS2_PLACEMENT_3D ( 'NONE', #92, #235, #201 ) ;
#99 = SECURITY_CLASSIFICATION_LEVEL ( 'unclassified' ) ;
#100 = ORIENTED_EDGE ( 'NONE', *, *, #135, .T. ) ;
#101 = EDGE_CURVE ( 'NONE', #195, #247, #66, .T. ) ;
#102 = FACE_OUTER_BOUND ( 'NONE', #78, .T. ) ;
#103 = ORIENTED_EDGE ( 'NONE', *, *, #216, .T. ) ;
#104 = FACE_OUTER_BOUND ( 'NONE', #173, .T. ) ;
#105 = LOCAL_TIME ( 17, 17, 28.00000000000000000, #213 ) ;
#106 = FACE_OUTER_BOUND ( 'NONE', #122, .T. ) ;
#107 = DIRECTION ( 'NONE',  ( 1.000000000000000000, 0.000000000000000000, 0.000000000000000000 ) ) ;
#108 = VECTOR ( 'NONE', #251, 1000.000000000000000 ) ;
#109 = CARTESIAN_POINT ( 'NONE',  ( 0.000000000000000000, 0.000000000000000000, 0.000000000000000000 ) ) ;
#110 = CYLINDRICAL_SURFACE ( 'NONE', #211, 8.000000000000000000 ) ;
#111 = DATE_TIME_ROLE ( 'creation_date' ) ;
#112 = ADVANCED_FACE ( 'NONE', ( #106 ), #110, .T. ) ;
#113 = VECTOR ( 'NONE', #179, 1000.000000000000000 ) ;
#114 = PERSON_AND_ORGANIZATION ( #126, #138 ) ;
#115 = COORDINATED_UNIVERSAL_TIME_OFFSET ( 1, 0, .AHEAD. ) ;
#116 = APPROVAL_ROLE ( '' ) ;
#117 = CLOSED_SHELL ( 'NONE', ( #40, #221, #112, #210, #176, #26, #231 ) ) ;
#118 = ORIENTED_EDGE ( 'NONE', *, *, #101, .T. ) ;
#119 = DIRECTION ( 'NONE',  ( 1.000000000000000000, 0.000000000000000000, 0.000000000000000000 ) ) ;
#120 = CIRCLE ( 'NONE', #3, 8.000000000000000000 ) ;
#121 = CYLINDRICAL_SURFACE ( 'NONE', #83, 5.000000000000000888 ) ;
#122 = EDGE_LOOP ( 'NONE', ( #177, #42, #161, #100 ) ) ;
#123 = PRODUCT ( '7b6d', '7b6d', '', ( #246 ) ) ;
#124 = EDGE_LOOP ( 'NONE', ( #84, #118 ) ) ;
#125 = DIRECTION ( 'NONE',  ( -1.000000000000000000, 0.000000000000000000, 0.000000000000000000 ) ) ;
#126 = PERSON ( 'NEURÈENÝ', 'NEURÈENÝ', 'NEURÈENÝ', ('NEURÈENÝ'), ('NEURÈENÝ'), ('NEURÈENÝ') ) ;
#127 = DIRECTION ( 'NONE',  ( 0.000000000000000000, 0.000000000000000000, 1.000000000000000000 ) ) ;
#128 = CARTESIAN_POINT ( 'NONE',  ( -8.000000000000000000, 0.000000000000000000, 5.000000000000000000 ) ) ;
#129 = PLANE ( 'NONE',  #130 ) ;
#130 = AXIS2_PLACEMENT_3D ( 'NONE', #202, #46, #68 ) ;
#131 = LINE ( 'NONE', #44, #193 ) ;
#132 = APPLICATION_CONTEXT ( 'configuration controlled 3d designs of mechanical parts and assemblies' ) ;
#133 = PERSON_AND_ORGANIZATION ( #126, #138 ) ;
#134 = PERSON_AND_ORGANIZATION ( #126, #138 ) ;
#135 = EDGE_CURVE ( 'NONE', #60, #190, #120, .T. ) ;
#136 = PERSON_AND_ORGANIZATION_ROLE ( 'classification_officer' ) ;
#137 = CARTESIAN_POINT ( 'NONE',  ( 5.000000000000000888, 6.123233995736767268E-16, 115.0000000000000000 ) ) ;
#138 = ORGANIZATION ( 'NEURÈENÝ', 'NEURÈENÝ', '' ) ;
#139 = APPROVAL ( #9, 'NEURÈENÝ' ) ;
#140 = ORIENTED_EDGE ( 'NONE', *, *, #4, .T. ) ;
#141 = VERTEX_POINT ( 'NONE', #204 ) ;
#142 = ORIENTED_EDGE ( 'NONE', *, *, #101, .F. ) ;
#143 = CARTESIAN_POINT ( 'NONE',  ( 0.000000000000000000, 0.000000000000000000, 115.0000000000000000 ) ) ;
#144 = DIRECTION ( 'NONE',  ( 1.000000000000000000, 0.000000000000000000, -0.000000000000000000 ) ) ;
#145 = PRODUCT_RELATED_PRODUCT_CATEGORY ( 'detail', '', ( #123 ) ) ;
#146 = CARTESIAN_POINT ( 'NONE',  ( -5.000000000000000888, 0.000000000000000000, 5.000000000000000000 ) ) ;
#147 = LINE ( 'NONE', #71, #113 ) ;
#148 = DIRECTION ( 'NONE',  ( 1.000000000000000000, 0.000000000000000000, 0.000000000000000000 ) ) ;
#149 = APPROVAL_DATE_TIME ( #209, #70 ) ;
#150 = DIRECTION ( 'NONE',  ( 1.000000000000000000, 0.000000000000000000, 0.000000000000000000 ) ) ;
#151 = APPROVAL ( #54, 'NEURÈENÝ' ) ;
#152 = DIRECTION ( 'NONE',  ( 1.000000000000000000, 0.000000000000000000, 0.000000000000000000 ) ) ;
#153 = CIRCLE ( 'NONE', #28, 5.000000000000000888 ) ;
#154 = COORDINATED_UNIVERSAL_TIME_OFFSET ( 1, 0, .AHEAD. ) ;
#155 = COORDINATED_UNIVERSAL_TIME_OFFSET ( 1, 0, .AHEAD. ) ;
#156 = APPROVAL_DATE_TIME ( #174, #151 ) ;
#157 = EDGE_CURVE ( 'NONE', #254, #141, #153, .T. ) ;
#158 = ORIENTED_EDGE ( 'NONE', *, *, #157, .F. ) ;
#159 = CARTESIAN_POINT ( 'NONE',  ( 0.000000000000000000, 0.000000000000000000, 115.0000000000000000 ) ) ;
#160 = AXIS2_PLACEMENT_3D ( 'NONE', #77, #170, #150 ) ;
#161 = ORIENTED_EDGE ( 'NONE', *, *, #8, .T. ) ;
#162 = CARTESIAN_POINT ( 'NONE',  ( 0.000000000000000000, 0.000000000000000000, 115.0000000000000000 ) ) ;
#163 = DIRECTION ( 'NONE',  ( 0.000000000000000000, 0.000000000000000000, 1.000000000000000000 ) ) ;
#164 = EDGE_CURVE ( 'NONE', #252, #82, #172, .T. ) ;
#165 = DIRECTION ( 'NONE',  ( 0.000000000000000000, 0.000000000000000000, 1.000000000000000000 ) ) ;
#166 = CARTESIAN_POINT ( 'NONE',  ( 0.000000000000000000, 0.000000000000000000, 5.000000000000000000 ) ) ;
#167 = PLANE ( 'NONE',  #53 ) ;
#168 = EDGE_CURVE ( 'NONE', #141, #254, #13, .T. ) ;
#169 = SECURITY_CLASSIFICATION ( '', '', #99 ) ;
#170 = DIRECTION ( 'NONE',  ( 0.000000000000000000, 0.000000000000000000, 1.000000000000000000 ) ) ;
#171 = APPROVAL_STATUS ( 'not_yet_approved' ) ;
#172 = CIRCLE ( 'NONE', #98, 5.000000000000000888 ) ;
#173 = EDGE_LOOP ( 'NONE', ( #215, #21 ) ) ;
#174 = DATE_AND_TIME ( #59, #105 ) ;
#175 = CARTESIAN_POINT ( 'NONE',  ( -8.000000000000000000, 0.000000000000000000, 5.000000000000000000 ) ) ;
#176 = ADVANCED_FACE ( 'NONE', ( #24 ), #65, .F. ) ;
#177 = ORIENTED_EDGE ( 'NONE', *, *, #216, .F. ) ;
#178 = PRODUCT_DEFINITION_FORMATION_WITH_SPECIFIED_SOURCE ( 'LIBOVOLNÝ', '', #123, .NOT_KNOWN. ) ;
#179 = DIRECTION ( 'NONE',  ( -0.000000000000000000, -0.000000000000000000, -1.000000000000000000 ) ) ;
#180 = CARTESIAN_POINT ( 'NONE',  ( 0.000000000000000000, 0.000000000000000000, 5.000000000000000000 ) ) ;
#181 = APPLICATION_CONTEXT ( 'configuration controlled 3d designs of mechanical parts and assemblies' ) ;
#182 = CARTESIAN_POINT ( 'NONE',  ( 0.000000000000000000, 0.000000000000000000, 5.000000000000000000 ) ) ;
#183 = CARTESIAN_POINT ( 'NONE',  ( 0.000000000000000000, 0.000000000000000000, 0.000000000000000000 ) ) ;
#184 = LOCAL_TIME ( 17, 17, 28.00000000000000000, #49 ) ;
#185 = CARTESIAN_POINT ( 'NONE',  ( 0.000000000000000000, 0.000000000000000000, 0.000000000000000000 ) ) ;
#186 = CC_DESIGN_PERSON_AND_ORGANIZATION_ASSIGNMENT ( #76, #136, ( #169 ) ) ;
#187 = APPLICATION_PROTOCOL_DEFINITION ( 'international standard', 'config_control_design', 1994, #181 ) ;
#188 = CC_DESIGN_APPROVAL ( #70, ( #52 ) ) ;
#189 = CC_DESIGN_DATE_AND_TIME_ASSIGNMENT ( #51, #97, ( #169 ) ) ;
#190 = VERTEX_POINT ( 'NONE', #219 ) ;
#191 = LINE ( 'NONE', #175, #108 ) ;
#192 = EDGE_CURVE ( 'NONE', #190, #60, #61, .T. ) ;
#193 = VECTOR ( 'NONE', #88, 1000.000000000000000 ) ;
#194 = DIRECTION ( 'NONE',  ( -1.000000000000000000, 0.000000000000000000, 0.000000000000000000 ) ) ;
#195 = VERTEX_POINT ( 'NONE', #218 ) ;
#196 = ORIENTED_EDGE ( 'NONE', *, *, #90, .T. ) ;
#197 = VECTOR ( 'NONE', #255, 1000.000000000000000 ) ;
#198 = PRODUCT_DEFINITION_SHAPE ( 'NONE', 'NONE',  #52 ) ;
#199 = CC_DESIGN_APPROVAL ( #151, ( #169 ) ) ;
#200 = DIRECTION ( 'NONE',  ( -0.000000000000000000, -0.000000000000000000, -1.000000000000000000 ) ) ;
#201 = DIRECTION ( 'NONE',  ( 1.000000000000000000, 0.000000000000000000, 0.000000000000000000 ) ) ;
#202 = CARTESIAN_POINT ( 'NONE',  ( 0.000000000000000000, 0.000000000000000000, 115.0000000000000000 ) ) ;
#203 = CC_DESIGN_PERSON_AND_ORGANIZATION_ASSIGNMENT ( #114, #242, ( #178 ) ) ;
#204 = CARTESIAN_POINT ( 'NONE',  ( -5.000000000000000888, 0.000000000000000000, 115.0000000000000000 ) ) ;
#205 = FACE_OUTER_BOUND ( 'NONE', #124, .T. ) ;
#206 = APPLICATION_PROTOCOL_DEFINITION ( 'international standard', 'config_control_design', 1994, #132 ) ;
#207 = DATE_AND_TIME ( #95, #85 ) ;
#208 = LOCAL_TIME ( 17, 17, 28.00000000000000000, #155 ) ;
#209 = DATE_AND_TIME ( #11, #208 ) ;
#210 = ADVANCED_FACE ( 'NONE', ( #222, #205 ), #167, .T. ) ;
#211 = AXIS2_PLACEMENT_3D ( 'NONE', #180, #200, #69 ) ;
#212 = APPROVAL_PERSON_ORGANIZATION ( #134, #139, #116 ) ;
#213 = COORDINATED_UNIVERSAL_TIME_OFFSET ( 1, 0, .AHEAD. ) ;
#214 = CARTESIAN_POINT ( 'NONE',  ( 0.000000000000000000, 0.000000000000000000, 5.000000000000000000 ) ) ;
#215 = ORIENTED_EDGE ( 'NONE', *, *, #168, .T. ) ;
#216 = EDGE_CURVE ( 'NONE', #195, #190, #131, .T. ) ;
#217 = ORIENTED_EDGE ( 'NONE', *, *, #164, .F. ) ;
#218 = CARTESIAN_POINT ( 'NONE',  ( 8.000000000000000000, 9.797174393178825657E-16, 5.000000000000000000 ) ) ;
#219 = CARTESIAN_POINT ( 'NONE',  ( 8.000000000000000000, 9.797174393178825657E-16, 0.000000000000000000 ) ) ;
#220 = DIRECTION ( 'NONE',  ( -0.000000000000000000, -0.000000000000000000, -1.000000000000000000 ) ) ;
#221 = ADVANCED_FACE ( 'NONE', ( #240 ), #47, .T. ) ;
#222 = FACE_BOUND ( 'NONE', #37, .T. ) ;
#223 = CARTESIAN_POINT ( 'NONE',  ( -8.000000000000000000, 0.000000000000000000, 0.000000000000000000 ) ) ;
#224 = LOCAL_TIME ( 17, 17, 28.00000000000000000, #115 ) ;
#225 = ADVANCED_BREP_SHAPE_REPRESENTATION ( '7b6d', ( #34, #160 ), #15 ) ;
#226 = CALENDAR_DATE ( 2022, 12, 12 ) ;
#227 = AXIS2_PLACEMENT_3D ( 'NONE', #166, #10, #152 ) ;
#228 = PERSON_AND_ORGANIZATION ( #126, #138 ) ;
#229 = ORIENTED_EDGE ( 'NONE', *, *, #241, .F. ) ;
#230 = ORIENTED_EDGE ( 'NONE', *, *, #135, .F. ) ;
#231 = ADVANCED_FACE ( 'NONE', ( #104 ), #129, .T. ) ;
#232 = ORIENTED_EDGE ( 'NONE', *, *, #192, .F. ) ;
#233 = AXIS2_PLACEMENT_3D ( 'NONE', #185, #165, #45 ) ;
#234 = DIRECTION ( 'NONE',  ( 0.000000000000000000, 0.000000000000000000, 1.000000000000000000 ) ) ;
#235 = DIRECTION ( 'NONE',  ( 0.000000000000000000, 0.000000000000000000, 1.000000000000000000 ) ) ;
#236 = CIRCLE ( 'NONE', #18, 5.000000000000000888 ) ;
#237 = APPROVAL_PERSON_ORGANIZATION ( #228, #151, #19 ) ;
#238 = CARTESIAN_POINT ( 'NONE',  ( 0.000000000000000000, 0.000000000000000000, 5.000000000000000000 ) ) ;
#239 = DIRECTION ( 'NONE',  ( 0.000000000000000000, 0.000000000000000000, 1.000000000000000000 ) ) ;
#240 = FACE_OUTER_BOUND ( 'NONE', #39, .T. ) ;
#241 = EDGE_CURVE ( 'NONE', #141, #82, #147, .T. ) ;
#242 = PERSON_AND_ORGANIZATION_ROLE ( 'creator' ) ;
#243 = AXIS2_PLACEMENT_3D ( 'NONE', #6, #25, #63 ) ;
#244 = CC_DESIGN_PERSON_AND_ORGANIZATION_ASSIGNMENT ( #73, #7, ( #123 ) ) ;
#245 = DATE_AND_TIME ( #31, #184 ) ;
#246 = MECHANICAL_CONTEXT ( 'NONE', #181, 'mechanical' ) ;
#247 = VERTEX_POINT ( 'NONE', #128 ) ;
#248 = ORIENTED_EDGE ( 'NONE', *, *, #164, .T. ) ;
#249 = EDGE_CURVE ( 'NONE', #247, #195, #56, .T. ) ;
#250 = SHAPE_DEFINITION_REPRESENTATION ( #198, #225 ) ;
#251 = DIRECTION ( 'NONE',  ( -0.000000000000000000, -0.000000000000000000, -1.000000000000000000 ) ) ;
#252 = VERTEX_POINT ( 'NONE', #96 ) ;
#253 = CC_DESIGN_PERSON_AND_ORGANIZATION_ASSIGNMENT ( #133, #33, ( #52 ) ) ;
#254 = VERTEX_POINT ( 'NONE', #137 ) ;
#255 = DIRECTION ( 'NONE',  ( -0.000000000000000000, -0.000000000000000000, -1.000000000000000000 ) ) ;
ENDSEC;
END-ISO-10303-21;
