ISO-10303-21;
HEADER;
FILE_DESCRIPTION (( 'STEP AP203' ),
    '1' );
FILE_NAME ('ca2c.STEP',
    '2023-01-02T15:30:25',
    ( '' ),
    ( '' ),
    'SwSTEP 2.0',
    'SolidWorks 2019',
    '' );
FILE_SCHEMA (( 'CONFIG_CONTROL_DESIGN' ));
ENDSEC;

DATA;
#1 = CYLINDRICAL_SURFACE ( 'NONE', #145, 6.000000000000000888 ) ;
#2 = EDGE_CURVE ( 'NONE', #195, #16, #230, .T. ) ;
#3 = CARTESIAN_POINT ( 'NONE',  ( 0.000000000000000000, 0.000000000000000000, 99.00000000000000000 ) ) ;
#4 =( GEOMETRIC_REPRESENTATION_CONTEXT ( 3 ) GLOBAL_UNCERTAINTY_ASSIGNED_CONTEXT ( ( #89 ) ) GLOBAL_UNIT_ASSIGNED_CONTEXT ( ( #111, #25, #66 ) ) REPRESENTATION_CONTEXT ( 'NONE', 'WORKASPACE' ) );
#5 = CARTESIAN_POINT ( 'NONE',  ( 0.000000000000000000, 0.000000000000000000, 5.000000000000000000 ) ) ;
#6 = LINE ( 'NONE', #238, #79 ) ;
#7 = DIRECTION ( 'NONE',  ( 0.000000000000000000, 0.000000000000000000, 1.000000000000000000 ) ) ;
#8 = DIRECTION ( 'NONE',  ( -0.000000000000000000, -0.000000000000000000, -1.000000000000000000 ) ) ;
#9 = APPROVAL_PERSON_ORGANIZATION ( #245, #239, #88 ) ;
#10 = AXIS2_PLACEMENT_3D ( 'NONE', #225, #228, #48 ) ;
#11 = ADVANCED_FACE ( 'NONE', ( #174 ), #249, .T. ) ;
#12 = CALENDAR_DATE ( 2023, 2, 1 ) ;
#13 = MANIFOLD_SOLID_BREP ( 'Pøidat vysunutím3', #198 ) ;
#14 = ORIENTED_EDGE ( 'NONE', *, *, #41, .T. ) ;
#15 = CALENDAR_DATE ( 2023, 2, 1 ) ;
#16 = VERTEX_POINT ( 'NONE', #204 ) ;
#17 = EDGE_LOOP ( 'NONE', ( #211, #70, #179, #233 ) ) ;
#18 = LOCAL_TIME ( 16, 30, 25.00000000000000000, #155 ) ;
#19 = DIRECTION ( 'NONE',  ( 0.000000000000000000, 0.000000000000000000, 1.000000000000000000 ) ) ;
#20 = DIRECTION ( 'NONE',  ( 1.000000000000000000, 0.000000000000000000, 0.000000000000000000 ) ) ;
#21 = DIRECTION ( 'NONE',  ( 0.000000000000000000, 0.000000000000000000, 1.000000000000000000 ) ) ;
#22 = AXIS2_PLACEMENT_3D ( 'NONE', #114, #135, #188 ) ;
#23 = DIRECTION ( 'NONE',  ( 0.000000000000000000, 0.000000000000000000, 1.000000000000000000 ) ) ;
#24 = CYLINDRICAL_SURFACE ( 'NONE', #247, 6.000000000000000888 ) ;
#25 =( NAMED_UNIT ( * ) PLANE_ANGLE_UNIT ( ) SI_UNIT ( $, .RADIAN. ) );
#26 = CC_DESIGN_APPROVAL ( #239, ( #124 ) ) ;
#27 = PLANE ( 'NONE',  #57 ) ;
#28 = COORDINATED_UNIVERSAL_TIME_OFFSET ( 1, 0, .AHEAD. ) ;
#29 = APPROVAL_ROLE ( '' ) ;
#30 = VECTOR ( 'NONE', #217, 1000.000000000000000 ) ;
#31 = VERTEX_POINT ( 'NONE', #148 ) ;
#32 = DATE_TIME_ROLE ( 'classification_date' ) ;
#33 = EDGE_LOOP ( 'NONE', ( #158, #253 ) ) ;
#34 = CIRCLE ( 'NONE', #183, 6.000000000000000888 ) ;
#35 = ORIENTED_EDGE ( 'NONE', *, *, #177, .T. ) ;
#36 = ADVANCED_FACE ( 'NONE', ( #126 ), #1, .T. ) ;
#37 = DIRECTION ( 'NONE',  ( -0.000000000000000000, -0.000000000000000000, -1.000000000000000000 ) ) ;
#38 = AXIS2_PLACEMENT_3D ( 'NONE', #221, #43, #200 ) ;
#39 = CIRCLE ( 'NONE', #129, 3.000000000000000444 ) ;
#40 = DIRECTION ( 'NONE',  ( 0.000000000000000000, 0.000000000000000000, 1.000000000000000000 ) ) ;
#41 = EDGE_CURVE ( 'NONE', #54, #52, #77, .T. ) ;
#42 = DIRECTION ( 'NONE',  ( 1.000000000000000000, 0.000000000000000000, 0.000000000000000000 ) ) ;
#43 = DIRECTION ( 'NONE',  ( -0.000000000000000000, -0.000000000000000000, -1.000000000000000000 ) ) ;
#44 = AXIS2_PLACEMENT_3D ( 'NONE', #91, #172, #68 ) ;
#45 = DIRECTION ( 'NONE',  ( -0.000000000000000000, -0.000000000000000000, -1.000000000000000000 ) ) ;
#46 = DATE_AND_TIME ( #154, #190 ) ;
#47 = APPLICATION_PROTOCOL_DEFINITION ( 'international standard', 'config_control_design', 1994, #127 ) ;
#48 = DIRECTION ( 'NONE',  ( 1.000000000000000000, 0.000000000000000000, 0.000000000000000000 ) ) ;
#49 = CC_DESIGN_PERSON_AND_ORGANIZATION_ASSIGNMENT ( #134, #208, ( #61 ) ) ;
#50 = APPROVAL_DATE_TIME ( #71, #106 ) ;
#51 = VERTEX_POINT ( 'NONE', #202 ) ;
#52 = VERTEX_POINT ( 'NONE', #216 ) ;
#53 = SECURITY_CLASSIFICATION ( '', '', #118 ) ;
#54 = VERTEX_POINT ( 'NONE', #161 ) ;
#55 = FACE_OUTER_BOUND ( 'NONE', #255, .T. ) ;
#56 = CARTESIAN_POINT ( 'NONE',  ( -3.000000000000000444, 0.000000000000000000, 99.00000000000000000 ) ) ;
#57 = AXIS2_PLACEMENT_3D ( 'NONE', #244, #151, #168 ) ;
#58 = CIRCLE ( 'NONE', #133, 3.000000000000000444 ) ;
#59 = ADVANCED_FACE ( 'NONE', ( #180 ), #24, .T. ) ;
#60 = DIRECTION ( 'NONE',  ( -0.000000000000000000, -0.000000000000000000, -1.000000000000000000 ) ) ;
#61 = PRODUCT ( 'ca2c', 'ca2c', '', ( #86 ) ) ;
#62 = DIRECTION ( 'NONE',  ( 1.000000000000000000, 0.000000000000000000, -0.000000000000000000 ) ) ;
#63 = DIRECTION ( 'NONE',  ( 0.000000000000000000, 0.000000000000000000, 1.000000000000000000 ) ) ;
#64 = APPLICATION_PROTOCOL_DEFINITION ( 'international standard', 'config_control_design', 1994, #192 ) ;
#65 = FACE_OUTER_BOUND ( 'NONE', #33, .T. ) ;
#66 =( NAMED_UNIT ( * ) SI_UNIT ( $, .STERADIAN. ) SOLID_ANGLE_UNIT ( ) );
#67 = COORDINATED_UNIVERSAL_TIME_OFFSET ( 1, 0, .AHEAD. ) ;
#68 = DIRECTION ( 'NONE',  ( 1.000000000000000000, 0.000000000000000000, 0.000000000000000000 ) ) ;
#69 = PERSON_AND_ORGANIZATION ( #242, #150 ) ;
#70 = ORIENTED_EDGE ( 'NONE', *, *, #2, .F. ) ;
#71 = DATE_AND_TIME ( #15, #18 ) ;
#72 = ORIENTED_EDGE ( 'NONE', *, *, #2, .T. ) ;
#73 = DATE_AND_TIME ( #173, #210 ) ;
#74 = EDGE_LOOP ( 'NONE', ( #72, #94 ) ) ;
#75 = AXIS2_PLACEMENT_3D ( 'NONE', #3, #8, #206 ) ;
#76 = EDGE_LOOP ( 'NONE', ( #122, #156 ) ) ;
#77 = LINE ( 'NONE', #108, #113 ) ;
#78 = CARTESIAN_POINT ( 'NONE',  ( 0.000000000000000000, 0.000000000000000000, 5.000000000000000000 ) ) ;
#79 = VECTOR ( 'NONE', #83, 1000.000000000000000 ) ;
#80 = CARTESIAN_POINT ( 'NONE',  ( 0.000000000000000000, 0.000000000000000000, 5.000000000000000000 ) ) ;
#81 = LINE ( 'NONE', #125, #222 ) ;
#82 = EDGE_CURVE ( 'NONE', #51, #31, #58, .T. ) ;
#83 = DIRECTION ( 'NONE',  ( -0.000000000000000000, -0.000000000000000000, -1.000000000000000000 ) ) ;
#84 = DATE_AND_TIME ( #12, #120 ) ;
#85 = ADVANCED_FACE ( 'NONE', ( #237 ), #235, .T. ) ;
#86 = MECHANICAL_CONTEXT ( 'NONE', #192, 'mechanical' ) ;
#87 = COORDINATED_UNIVERSAL_TIME_OFFSET ( 1, 0, .AHEAD. ) ;
#88 = APPROVAL_ROLE ( '' ) ;
#89 = UNCERTAINTY_MEASURE_WITH_UNIT (LENGTH_MEASURE( 1.000000000000000082E-05 ), #111, 'distance_accuracy_value', 'NONE');
#90 = APPROVAL ( #209, 'NEURÈENÝ' ) ;
#91 = CARTESIAN_POINT ( 'NONE',  ( 0.000000000000000000, 0.000000000000000000, 99.00000000000000000 ) ) ;
#92 = ORIENTED_EDGE ( 'NONE', *, *, #187, .T. ) ;
#93 = DESIGN_CONTEXT ( 'detailed design', #127, 'design' ) ;
#94 = ORIENTED_EDGE ( 'NONE', *, *, #110, .T. ) ;
#95 = EDGE_CURVE ( 'NONE', #54, #231, #227, .T. ) ;
#96 = EDGE_LOOP ( 'NONE', ( #97, #14, #215, #175 ) ) ;
#97 = ORIENTED_EDGE ( 'NONE', *, *, #95, .F. ) ;
#98 = CARTESIAN_POINT ( 'NONE',  ( 0.000000000000000000, 0.000000000000000000, 0.000000000000000000 ) ) ;
#99 = FACE_OUTER_BOUND ( 'NONE', #141, .T. ) ;
#100 = CC_DESIGN_PERSON_AND_ORGANIZATION_ASSIGNMENT ( #131, #167, ( #124 ) ) ;
#101 = CARTESIAN_POINT ( 'NONE',  ( 0.000000000000000000, 0.000000000000000000, 99.00000000000000000 ) ) ;
#102 = AXIS2_PLACEMENT_3D ( 'NONE', #182, #19, #164 ) ;
#103 = CIRCLE ( 'NONE', #22, 6.000000000000000888 ) ;
#104 = DIRECTION ( 'NONE',  ( 1.000000000000000000, 0.000000000000000000, 0.000000000000000000 ) ) ;
#105 = PRODUCT_DEFINITION_SHAPE ( 'NONE', 'NONE',  #143 ) ;
#106 = APPROVAL ( #251, 'NEURÈENÝ' ) ;
#107 = ADVANCED_BREP_SHAPE_REPRESENTATION ( 'ca2c', ( #13, #10 ), #4 ) ;
#108 = CARTESIAN_POINT ( 'NONE',  ( 6.000000000000000888, 7.347880794884120722E-16, 5.000000000000000000 ) ) ;
#109 = PERSON_AND_ORGANIZATION ( #242, #150 ) ;
#110 = EDGE_CURVE ( 'NONE', #16, #195, #153, .T. ) ;
#111 =( LENGTH_UNIT ( ) NAMED_UNIT ( * ) SI_UNIT ( .MILLI., .METRE. ) );
#112 = DATE_AND_TIME ( #224, #157 ) ;
#113 = VECTOR ( 'NONE', #60, 1000.000000000000000 ) ;
#114 = CARTESIAN_POINT ( 'NONE',  ( 0.000000000000000000, 0.000000000000000000, 5.000000000000000000 ) ) ;
#115 = CC_DESIGN_APPROVAL ( #106, ( #53 ) ) ;
#116 = EDGE_CURVE ( 'NONE', #196, #52, #34, .T. ) ;
#117 = ORIENTED_EDGE ( 'NONE', *, *, #147, .F. ) ;
#118 = SECURITY_CLASSIFICATION_LEVEL ( 'unclassified' ) ;
#119 = ORIENTED_EDGE ( 'NONE', *, *, #197, .T. ) ;
#120 = LOCAL_TIME ( 16, 30, 25.00000000000000000, #87 ) ;
#121 = AXIS2_PLACEMENT_3D ( 'NONE', #186, #7, #42 ) ;
#122 = ORIENTED_EDGE ( 'NONE', *, *, #82, .F. ) ;
#123 = CARTESIAN_POINT ( 'NONE',  ( 0.000000000000000000, 0.000000000000000000, 99.00000000000000000 ) ) ;
#124 = PRODUCT_DEFINITION_FORMATION_WITH_SPECIFIED_SOURCE ( 'LIBOVOLNÝ', '', #61, .NOT_KNOWN. ) ;
#125 = CARTESIAN_POINT ( 'NONE',  ( -6.000000000000000888, 0.000000000000000000, 5.000000000000000000 ) ) ;
#126 = FACE_OUTER_BOUND ( 'NONE', #96, .T. ) ;
#127 = APPLICATION_CONTEXT ( 'configuration controlled 3d designs of mechanical parts and assemblies' ) ;
#128 = CARTESIAN_POINT ( 'NONE',  ( 0.000000000000000000, 0.000000000000000000, 0.000000000000000000 ) ) ;
#129 = AXIS2_PLACEMENT_3D ( 'NONE', #240, #63, #149 ) ;
#130 = DIRECTION ( 'NONE',  ( -1.000000000000000000, 0.000000000000000000, 0.000000000000000000 ) ) ;
#131 = PERSON_AND_ORGANIZATION ( #242, #150 ) ;
#132 = PERSON_AND_ORGANIZATION ( #242, #150 ) ;
#133 = AXIS2_PLACEMENT_3D ( 'NONE', #80, #21, #162 ) ;
#134 = PERSON_AND_ORGANIZATION ( #242, #150 ) ;
#135 = DIRECTION ( 'NONE',  ( 0.000000000000000000, 0.000000000000000000, 1.000000000000000000 ) ) ;
#136 = ADVANCED_FACE ( 'NONE', ( #199, #55 ), #185, .T. ) ;
#137 = APPROVAL_PERSON_ORGANIZATION ( #69, #106, #213 ) ;
#138 = EDGE_LOOP ( 'NONE', ( #214, #140, #35, #252 ) ) ;
#139 = APPROVAL_PERSON_ORGANIZATION ( #109, #90, #29 ) ;
#140 = ORIENTED_EDGE ( 'NONE', *, *, #246, .F. ) ;
#141 = EDGE_LOOP ( 'NONE', ( #234, #119, #92, #117 ) ) ;
#142 = LINE ( 'NONE', #144, #30 ) ;
#143 = PRODUCT_DEFINITION ( 'NEZNÁMÝ', '', #124, #93 ) ;
#144 = CARTESIAN_POINT ( 'NONE',  ( 3.000000000000000444, 3.673940397442060361E-16, 99.00000000000000000 ) ) ;
#145 = AXIS2_PLACEMENT_3D ( 'NONE', #78, #45, #201 ) ;
#146 = DIRECTION ( 'NONE',  ( 0.000000000000000000, 0.000000000000000000, 1.000000000000000000 ) ) ;
#147 = EDGE_CURVE ( 'NONE', #195, #51, #6, .T. ) ;
#148 = CARTESIAN_POINT ( 'NONE',  ( 3.000000000000000444, 3.673940397442060361E-16, 5.000000000000000000 ) ) ;
#149 = DIRECTION ( 'NONE',  ( 1.000000000000000000, 0.000000000000000000, 0.000000000000000000 ) ) ;
#150 = ORGANIZATION ( 'NEURÈENÝ', 'NEURÈENÝ', '' ) ;
#151 = DIRECTION ( 'NONE',  ( 0.000000000000000000, 0.000000000000000000, 1.000000000000000000 ) ) ;
#152 = PRODUCT_RELATED_PRODUCT_CATEGORY ( 'detail', '', ( #61 ) ) ;
#153 = CIRCLE ( 'NONE', #184, 3.000000000000000444 ) ;
#154 = CALENDAR_DATE ( 2023, 2, 1 ) ;
#155 = COORDINATED_UNIVERSAL_TIME_OFFSET ( 1, 0, .AHEAD. ) ;
#156 = ORIENTED_EDGE ( 'NONE', *, *, #187, .F. ) ;
#157 = LOCAL_TIME ( 16, 30, 25.00000000000000000, #28 ) ;
#158 = ORIENTED_EDGE ( 'NONE', *, *, #116, .F. ) ;
#159 = ORIENTED_EDGE ( 'NONE', *, *, #246, .T. ) ;
#160 = CC_DESIGN_PERSON_AND_ORGANIZATION_ASSIGNMENT ( #189, #223, ( #143 ) ) ;
#161 = CARTESIAN_POINT ( 'NONE',  ( 6.000000000000000888, 7.347880794884120722E-16, 5.000000000000000000 ) ) ;
#162 = DIRECTION ( 'NONE',  ( 1.000000000000000000, 0.000000000000000000, 0.000000000000000000 ) ) ;
#163 = CC_DESIGN_PERSON_AND_ORGANIZATION_ASSIGNMENT ( #171, #170, ( #53 ) ) ;
#164 = DIRECTION ( 'NONE',  ( 1.000000000000000000, 0.000000000000000000, -0.000000000000000000 ) ) ;
#165 = DIRECTION ( 'NONE',  ( -0.000000000000000000, -0.000000000000000000, -1.000000000000000000 ) ) ;
#166 = CARTESIAN_POINT ( 'NONE',  ( -6.000000000000000888, 0.000000000000000000, 0.000000000000000000 ) ) ;
#167 = PERSON_AND_ORGANIZATION_ROLE ( 'creator' ) ;
#168 = DIRECTION ( 'NONE',  ( 1.000000000000000000, 0.000000000000000000, -0.000000000000000000 ) ) ;
#169 = DATE_TIME_ROLE ( 'creation_date' ) ;
#170 = PERSON_AND_ORGANIZATION_ROLE ( 'classification_officer' ) ;
#171 = PERSON_AND_ORGANIZATION ( #242, #150 ) ;
#172 = DIRECTION ( 'NONE',  ( 0.000000000000000000, 0.000000000000000000, 1.000000000000000000 ) ) ;
#173 = CALENDAR_DATE ( 2023, 2, 1 ) ;
#174 = FACE_OUTER_BOUND ( 'NONE', #17, .T. ) ;
#175 = ORIENTED_EDGE ( 'NONE', *, *, #177, .F. ) ;
#176 = ORIENTED_EDGE ( 'NONE', *, *, #95, .T. ) ;
#177 = EDGE_CURVE ( 'NONE', #231, #196, #81, .T. ) ;
#178 = AXIS2_PLACEMENT_3D ( 'NONE', #98, #40, #20 ) ;
#179 = ORIENTED_EDGE ( 'NONE', *, *, #147, .T. ) ;
#180 = FACE_OUTER_BOUND ( 'NONE', #138, .T. ) ;
#181 = CYLINDRICAL_SURFACE ( 'NONE', #75, 3.000000000000000444 ) ;
#182 = CARTESIAN_POINT ( 'NONE',  ( 0.000000000000000000, 0.000000000000000000, 5.000000000000000000 ) ) ;
#183 = AXIS2_PLACEMENT_3D ( 'NONE', #128, #219, #104 ) ;
#184 = AXIS2_PLACEMENT_3D ( 'NONE', #101, #146, #220 ) ;
#185 = PLANE ( 'NONE',  #102 ) ;
#186 = CARTESIAN_POINT ( 'NONE',  ( 0.000000000000000000, 0.000000000000000000, 5.000000000000000000 ) ) ;
#187 = EDGE_CURVE ( 'NONE', #31, #51, #39, .T. ) ;
#188 = DIRECTION ( 'NONE',  ( 1.000000000000000000, 0.000000000000000000, 0.000000000000000000 ) ) ;
#189 = PERSON_AND_ORGANIZATION ( #242, #150 ) ;
#190 = LOCAL_TIME ( 16, 30, 25.00000000000000000, #67 ) ;
#191 = APPROVAL_DATE_TIME ( #112, #90 ) ;
#192 = APPLICATION_CONTEXT ( 'configuration controlled 3d designs of mechanical parts and assemblies' ) ;
#193 = CC_DESIGN_PERSON_AND_ORGANIZATION_ASSIGNMENT ( #132, #205, ( #124 ) ) ;
#194 = AXIS2_PLACEMENT_3D ( 'NONE', #123, #23, #62 ) ;
#195 = VERTEX_POINT ( 'NONE', #56 ) ;
#196 = VERTEX_POINT ( 'NONE', #166 ) ;
#197 = EDGE_CURVE ( 'NONE', #16, #31, #142, .T. ) ;
#198 = CLOSED_SHELL ( 'NONE', ( #218, #36, #59, #136, #236, #11, #85 ) ) ;
#199 = FACE_BOUND ( 'NONE', #76, .T. ) ;
#200 = DIRECTION ( 'NONE',  ( -1.000000000000000000, 0.000000000000000000, 0.000000000000000000 ) ) ;
#201 = DIRECTION ( 'NONE',  ( -1.000000000000000000, 0.000000000000000000, 0.000000000000000000 ) ) ;
#202 = CARTESIAN_POINT ( 'NONE',  ( -3.000000000000000444, 0.000000000000000000, 5.000000000000000000 ) ) ;
#203 = CC_DESIGN_SECURITY_CLASSIFICATION ( #53, ( #124 ) ) ;
#204 = CARTESIAN_POINT ( 'NONE',  ( 3.000000000000000444, 3.673940397442060361E-16, 99.00000000000000000 ) ) ;
#205 = PERSON_AND_ORGANIZATION_ROLE ( 'design_supplier' ) ;
#206 = DIRECTION ( 'NONE',  ( -1.000000000000000000, 0.000000000000000000, 0.000000000000000000 ) ) ;
#207 = EDGE_CURVE ( 'NONE', #52, #196, #254, .T. ) ;
#208 = PERSON_AND_ORGANIZATION_ROLE ( 'design_owner' ) ;
#209 = APPROVAL_STATUS ( 'not_yet_approved' ) ;
#210 = LOCAL_TIME ( 16, 30, 25.00000000000000000, #248 ) ;
#211 = ORIENTED_EDGE ( 'NONE', *, *, #197, .F. ) ;
#212 = CC_DESIGN_DATE_AND_TIME_ASSIGNMENT ( #73, #32, ( #53 ) ) ;
#213 = APPROVAL_ROLE ( '' ) ;
#214 = ORIENTED_EDGE ( 'NONE', *, *, #41, .F. ) ;
#215 = ORIENTED_EDGE ( 'NONE', *, *, #207, .T. ) ;
#216 = CARTESIAN_POINT ( 'NONE',  ( 6.000000000000000888, 7.347880794884120722E-16, 0.000000000000000000 ) ) ;
#217 = DIRECTION ( 'NONE',  ( -0.000000000000000000, -0.000000000000000000, -1.000000000000000000 ) ) ;
#218 = ADVANCED_FACE ( 'NONE', ( #99 ), #181, .T. ) ;
#219 = DIRECTION ( 'NONE',  ( 0.000000000000000000, 0.000000000000000000, 1.000000000000000000 ) ) ;
#220 = DIRECTION ( 'NONE',  ( 1.000000000000000000, 0.000000000000000000, 0.000000000000000000 ) ) ;
#221 = CARTESIAN_POINT ( 'NONE',  ( 0.000000000000000000, 0.000000000000000000, 99.00000000000000000 ) ) ;
#222 = VECTOR ( 'NONE', #165, 1000.000000000000000 ) ;
#223 = PERSON_AND_ORGANIZATION_ROLE ( 'creator' ) ;
#224 = CALENDAR_DATE ( 2023, 2, 1 ) ;
#225 = CARTESIAN_POINT ( 'NONE',  ( 0.000000000000000000, 0.000000000000000000, 0.000000000000000000 ) ) ;
#226 = CC_DESIGN_APPROVAL ( #90, ( #143 ) ) ;
#227 = CIRCLE ( 'NONE', #121, 6.000000000000000888 ) ;
#228 = DIRECTION ( 'NONE',  ( 0.000000000000000000, 0.000000000000000000, 1.000000000000000000 ) ) ;
#229 = APPROVAL_STATUS ( 'not_yet_approved' ) ;
#230 = CIRCLE ( 'NONE', #44, 3.000000000000000444 ) ;
#231 = VERTEX_POINT ( 'NONE', #243 ) ;
#232 = SHAPE_DEFINITION_REPRESENTATION ( #105, #107 ) ;
#233 = ORIENTED_EDGE ( 'NONE', *, *, #82, .T. ) ;
#234 = ORIENTED_EDGE ( 'NONE', *, *, #110, .F. ) ;
#235 = PLANE ( 'NONE',  #194 ) ;
#236 = ADVANCED_FACE ( 'NONE', ( #65 ), #27, .F. ) ;
#237 = FACE_OUTER_BOUND ( 'NONE', #74, .T. ) ;
#238 = CARTESIAN_POINT ( 'NONE',  ( -3.000000000000000444, 0.000000000000000000, 99.00000000000000000 ) ) ;
#239 = APPROVAL ( #229, 'NEURÈENÝ' ) ;
#240 = CARTESIAN_POINT ( 'NONE',  ( 0.000000000000000000, 0.000000000000000000, 5.000000000000000000 ) ) ;
#241 = APPROVAL_DATE_TIME ( #46, #239 ) ;
#242 = PERSON ( 'NEURÈENÝ', 'NEURÈENÝ', 'NEURÈENÝ', ('NEURÈENÝ'), ('NEURÈENÝ'), ('NEURÈENÝ') ) ;
#243 = CARTESIAN_POINT ( 'NONE',  ( -6.000000000000000888, 0.000000000000000000, 5.000000000000000000 ) ) ;
#244 = CARTESIAN_POINT ( 'NONE',  ( 0.000000000000000000, 0.000000000000000000, 0.000000000000000000 ) ) ;
#245 = PERSON_AND_ORGANIZATION ( #242, #150 ) ;
#246 = EDGE_CURVE ( 'NONE', #231, #54, #103, .T. ) ;
#247 = AXIS2_PLACEMENT_3D ( 'NONE', #5, #37, #130 ) ;
#248 = COORDINATED_UNIVERSAL_TIME_OFFSET ( 1, 0, .AHEAD. ) ;
#249 = CYLINDRICAL_SURFACE ( 'NONE', #38, 3.000000000000000444 ) ;
#250 = CC_DESIGN_DATE_AND_TIME_ASSIGNMENT ( #84, #169, ( #143 ) ) ;
#251 = APPROVAL_STATUS ( 'not_yet_approved' ) ;
#252 = ORIENTED_EDGE ( 'NONE', *, *, #116, .T. ) ;
#253 = ORIENTED_EDGE ( 'NONE', *, *, #207, .F. ) ;
#254 = CIRCLE ( 'NONE', #178, 6.000000000000000888 ) ;
#255 = EDGE_LOOP ( 'NONE', ( #159, #176 ) ) ;
ENDSEC;
END-ISO-10303-21;
