ISO-10303-21;
HEADER;
FILE_DESCRIPTION (( 'STEP AP203' ),
    '1' );
FILE_NAME ('4f14.STEP',
    '2023-05-30T07:33:11',
    ( '' ),
    ( '' ),
    'SwSTEP 2.0',
    'SolidWorks 2019',
    '' );
FILE_SCHEMA (( 'CONFIG_CONTROL_DESIGN' ));
ENDSEC;

DATA;
#1 = CARTESIAN_POINT ( 'NONE',  ( 0.000000000000000000, 0.000000000000000000, 5.000000000000000000 ) ) ;
#2 = VECTOR ( 'NONE', #56, 1000.000000000000000 ) ;
#3 = AXIS2_PLACEMENT_3D ( 'NONE', #41, #173, #214 ) ;
#4 = CALENDAR_DATE ( 2023, 30, 5 ) ;
#5 = CIRCLE ( 'NONE', #118, 4.000000000000000000 ) ;
#6 = ORIENTED_EDGE ( 'NONE', *, *, #65, .F. ) ;
#7 = CIRCLE ( 'NONE', #94, 7.000000000000000000 ) ;
#8 = ORIENTED_EDGE ( 'NONE', *, *, #123, .F. ) ;
#9 = ORIENTED_EDGE ( 'NONE', *, *, #17, .F. ) ;
#10 = APPROVAL ( #116, 'NEURÈENÝ' ) ;
#11 = DIRECTION ( 'NONE',  ( -0.000000000000000000, -0.000000000000000000, -1.000000000000000000 ) ) ;
#12 = DIRECTION ( 'NONE',  ( 1.000000000000000000, 0.000000000000000000, -0.000000000000000000 ) ) ;
#13 = ADVANCED_FACE ( 'NONE', ( #63 ), #28, .T. ) ;
#14 = PERSON_AND_ORGANIZATION ( #80, #52 ) ;
#15 = APPLICATION_CONTEXT ( 'configuration controlled 3d designs of mechanical parts and assemblies' ) ;
#16 =( LENGTH_UNIT ( ) NAMED_UNIT ( * ) SI_UNIT ( .MILLI., .METRE. ) );
#17 = EDGE_CURVE ( 'NONE', #104, #101, #100, .T. ) ;
#18 = DIRECTION ( 'NONE',  ( 1.000000000000000000, 0.000000000000000000, 0.000000000000000000 ) ) ;
#19 = APPLICATION_PROTOCOL_DEFINITION ( 'international standard', 'config_control_design', 1994, #15 ) ;
#20 = DIRECTION ( 'NONE',  ( -0.000000000000000000, -0.000000000000000000, -1.000000000000000000 ) ) ;
#21 = CC_DESIGN_PERSON_AND_ORGANIZATION_ASSIGNMENT ( #44, #215, ( #32 ) ) ;
#22 = DATE_TIME_ROLE ( 'classification_date' ) ;
#23 = ORIENTED_EDGE ( 'NONE', *, *, #228, .F. ) ;
#24 = ORIENTED_EDGE ( 'NONE', *, *, #247, .T. ) ;
#25 = APPROVAL_ROLE ( '' ) ;
#26 = EDGE_LOOP ( 'NONE', ( #9, #109 ) ) ;
#27 = DATE_AND_TIME ( #202, #200 ) ;
#28 = PLANE ( 'NONE',  #185 ) ;
#29 = ADVANCED_BREP_SHAPE_REPRESENTATION ( '4f14', ( #96, #163 ), #210 ) ;
#30 = EDGE_LOOP ( 'NONE', ( #224, #201, #166, #82 ) ) ;
#31 = CARTESIAN_POINT ( 'NONE',  ( 0.000000000000000000, 0.000000000000000000, 5.000000000000000000 ) ) ;
#32 = PRODUCT_DEFINITION ( 'NEZNÁMÝ', '', #128, #156 ) ;
#33 = FACE_OUTER_BOUND ( 'NONE', #226, .T. ) ;
#34 = CYLINDRICAL_SURFACE ( 'NONE', #153, 4.000000000000000000 ) ;
#35 = CARTESIAN_POINT ( 'NONE',  ( 0.000000000000000000, 0.000000000000000000, 165.0000000000000000 ) ) ;
#36 = CYLINDRICAL_SURFACE ( 'NONE', #55, 7.000000000000000000 ) ;
#37 = APPLICATION_CONTEXT ( 'configuration controlled 3d designs of mechanical parts and assemblies' ) ;
#38 = CARTESIAN_POINT ( 'NONE',  ( 0.000000000000000000, 0.000000000000000000, 165.0000000000000000 ) ) ;
#39 = DIRECTION ( 'NONE',  ( 0.000000000000000000, 0.000000000000000000, 1.000000000000000000 ) ) ;
#40 = CC_DESIGN_PERSON_AND_ORGANIZATION_ASSIGNMENT ( #14, #176, ( #231 ) ) ;
#41 = CARTESIAN_POINT ( 'NONE',  ( 0.000000000000000000, 0.000000000000000000, 5.000000000000000000 ) ) ;
#42 = APPROVAL_PERSON_ORGANIZATION ( #155, #218, #146 ) ;
#43 = MECHANICAL_CONTEXT ( 'NONE', #15, 'mechanical' ) ;
#44 = PERSON_AND_ORGANIZATION ( #80, #52 ) ;
#45 = VERTEX_POINT ( 'NONE', #67 ) ;
#46 = ORIENTED_EDGE ( 'NONE', *, *, #17, .T. ) ;
#47 = PERSON_AND_ORGANIZATION_ROLE ( 'creator' ) ;
#48 = ORIENTED_EDGE ( 'NONE', *, *, #115, .F. ) ;
#49 = CC_DESIGN_PERSON_AND_ORGANIZATION_ASSIGNMENT ( #243, #206, ( #128 ) ) ;
#50 = PERSON_AND_ORGANIZATION ( #80, #52 ) ;
#51 = ORIENTED_EDGE ( 'NONE', *, *, #178, .T. ) ;
#52 = ORGANIZATION ( 'NEURÈENÝ', 'NEURÈENÝ', '' ) ;
#53 = PLANE ( 'NONE',  #73 ) ;
#54 = DIRECTION ( 'NONE',  ( 1.000000000000000000, 0.000000000000000000, 0.000000000000000000 ) ) ;
#55 = AXIS2_PLACEMENT_3D ( 'NONE', #31, #91, #229 ) ;
#56 = DIRECTION ( 'NONE',  ( -0.000000000000000000, -0.000000000000000000, -1.000000000000000000 ) ) ;
#57 = AXIS2_PLACEMENT_3D ( 'NONE', #238, #196, #194 ) ;
#58 = APPROVAL_STATUS ( 'not_yet_approved' ) ;
#59 = LOCAL_TIME ( 9, 33, 11.00000000000000000, #95 ) ;
#60 = EDGE_LOOP ( 'NONE', ( #122, #179, #222, #46 ) ) ;
#61 = EDGE_LOOP ( 'NONE', ( #145, #161 ) ) ;
#62 = CC_DESIGN_DATE_AND_TIME_ASSIGNMENT ( #27, #22, ( #205 ) ) ;
#63 = FACE_OUTER_BOUND ( 'NONE', #64, .T. ) ;
#64 = EDGE_LOOP ( 'NONE', ( #24, #84 ) ) ;
#65 = EDGE_CURVE ( 'NONE', #45, #158, #121, .T. ) ;
#66 = LINE ( 'NONE', #170, #69 ) ;
#67 = CARTESIAN_POINT ( 'NONE',  ( 7.000000000000000000, 8.572527594031473190E-16, 5.000000000000000000 ) ) ;
#68 = DIRECTION ( 'NONE',  ( 0.000000000000000000, 0.000000000000000000, 1.000000000000000000 ) ) ;
#69 = VECTOR ( 'NONE', #191, 1000.000000000000000 ) ;
#70 = CARTESIAN_POINT ( 'NONE',  ( 0.000000000000000000, 0.000000000000000000, 5.000000000000000000 ) ) ;
#71 = CARTESIAN_POINT ( 'NONE',  ( 0.000000000000000000, 0.000000000000000000, 5.000000000000000000 ) ) ;
#72 = DATE_AND_TIME ( #255, #97 ) ;
#73 = AXIS2_PLACEMENT_3D ( 'NONE', #110, #130, #12 ) ;
#74 =( NAMED_UNIT ( * ) SI_UNIT ( $, .STERADIAN. ) SOLID_ANGLE_UNIT ( ) );
#75 = DIRECTION ( 'NONE',  ( 1.000000000000000000, 0.000000000000000000, 0.000000000000000000 ) ) ;
#76 =( NAMED_UNIT ( * ) PLANE_ANGLE_UNIT ( ) SI_UNIT ( $, .RADIAN. ) );
#77 = APPROVAL_PERSON_ORGANIZATION ( #220, #141, #25 ) ;
#78 = CALENDAR_DATE ( 2023, 30, 5 ) ;
#79 = COORDINATED_UNIVERSAL_TIME_OFFSET ( 1, 0, .AHEAD. ) ;
#80 = PERSON ( 'NEURÈENÝ', 'NEURÈENÝ', 'NEURÈENÝ', ('NEURÈENÝ'), ('NEURÈENÝ'), ('NEURÈENÝ') ) ;
#81 = ADVANCED_FACE ( 'NONE', ( #137, #207 ), #251, .T. ) ;
#82 = ORIENTED_EDGE ( 'NONE', *, *, #228, .T. ) ;
#83 = LOCAL_TIME ( 9, 33, 11.00000000000000000, #160 ) ;
#84 = ORIENTED_EDGE ( 'NONE', *, *, #123, .T. ) ;
#85 = VERTEX_POINT ( 'NONE', #208 ) ;
#86 = AXIS2_PLACEMENT_3D ( 'NONE', #70, #252, #152 ) ;
#87 = DIRECTION ( 'NONE',  ( 1.000000000000000000, 0.000000000000000000, 0.000000000000000000 ) ) ;
#88 = DIRECTION ( 'NONE',  ( -1.000000000000000000, 0.000000000000000000, 0.000000000000000000 ) ) ;
#89 = DIRECTION ( 'NONE',  ( 1.000000000000000000, 0.000000000000000000, -0.000000000000000000 ) ) ;
#90 = CARTESIAN_POINT ( 'NONE',  ( 0.000000000000000000, 0.000000000000000000, 165.0000000000000000 ) ) ;
#91 = DIRECTION ( 'NONE',  ( -0.000000000000000000, -0.000000000000000000, -1.000000000000000000 ) ) ;
#92 = ADVANCED_FACE ( 'NONE', ( #184 ), #36, .T. ) ;
#93 = DIRECTION ( 'NONE',  ( 0.000000000000000000, 0.000000000000000000, 1.000000000000000000 ) ) ;
#94 = AXIS2_PLACEMENT_3D ( 'NONE', #71, #250, #230 ) ;
#95 = COORDINATED_UNIVERSAL_TIME_OFFSET ( 1, 0, .AHEAD. ) ;
#96 = MANIFOLD_SOLID_BREP ( 'Pøidat vysunutím3', #171 ) ;
#97 = LOCAL_TIME ( 9, 33, 11.00000000000000000, #120 ) ;
#98 = CARTESIAN_POINT ( 'NONE',  ( -4.000000000000000000, 0.000000000000000000, 165.0000000000000000 ) ) ;
#99 = DIRECTION ( 'NONE',  ( 1.000000000000000000, 0.000000000000000000, 0.000000000000000000 ) ) ;
#100 = CIRCLE ( 'NONE', #126, 4.000000000000000000 ) ;
#101 = VERTEX_POINT ( 'NONE', #149 ) ;
#102 = EDGE_CURVE ( 'NONE', #45, #199, #211, .T. ) ;
#103 = DATE_AND_TIME ( #177, #83 ) ;
#104 = VERTEX_POINT ( 'NONE', #150 ) ;
#105 = APPROVAL_STATUS ( 'not_yet_approved' ) ;
#106 = VERTEX_POINT ( 'NONE', #248 ) ;
#107 = APPROVAL_PERSON_ORGANIZATION ( #143, #10, #193 ) ;
#108 = CARTESIAN_POINT ( 'NONE',  ( 0.000000000000000000, 0.000000000000000000, 165.0000000000000000 ) ) ;
#109 = ORIENTED_EDGE ( 'NONE', *, *, #241, .F. ) ;
#110 = CARTESIAN_POINT ( 'NONE',  ( 0.000000000000000000, 0.000000000000000000, 0.000000000000000000 ) ) ;
#111 = FACE_OUTER_BOUND ( 'NONE', #60, .T. ) ;
#112 = CC_DESIGN_DATE_AND_TIME_ASSIGNMENT ( #72, #138, ( #32 ) ) ;
#113 = DIRECTION ( 'NONE',  ( -1.000000000000000000, 0.000000000000000000, 0.000000000000000000 ) ) ;
#114 = DIRECTION ( 'NONE',  ( -0.000000000000000000, -0.000000000000000000, -1.000000000000000000 ) ) ;
#115 = EDGE_CURVE ( 'NONE', #246, #104, #66, .T. ) ;
#116 = APPROVAL_STATUS ( 'not_yet_approved' ) ;
#117 = CYLINDRICAL_SURFACE ( 'NONE', #3, 7.000000000000000000 ) ;
#118 = AXIS2_PLACEMENT_3D ( 'NONE', #38, #236, #99 ) ;
#119 = ADVANCED_FACE ( 'NONE', ( #33 ), #53, .F. ) ;
#120 = COORDINATED_UNIVERSAL_TIME_OFFSET ( 1, 0, .AHEAD. ) ;
#121 = CIRCLE ( 'NONE', #86, 7.000000000000000000 ) ;
#122 = ORIENTED_EDGE ( 'NONE', *, *, #132, .F. ) ;
#123 = EDGE_CURVE ( 'NONE', #106, #246, #203, .T. ) ;
#124 = EDGE_LOOP ( 'NONE', ( #6, #183, #51, #244 ) ) ;
#125 = COORDINATED_UNIVERSAL_TIME_OFFSET ( 1, 0, .AHEAD. ) ;
#126 = AXIS2_PLACEMENT_3D ( 'NONE', #234, #68, #54 ) ;
#127 = PERSON_AND_ORGANIZATION ( #80, #52 ) ;
#128 = PRODUCT_DEFINITION_FORMATION_WITH_SPECIFIED_SOURCE ( 'LIBOVOLNÝ', '', #231, .NOT_KNOWN. ) ;
#129 = ADVANCED_FACE ( 'NONE', ( #151 ), #233, .T. ) ;
#130 = DIRECTION ( 'NONE',  ( 0.000000000000000000, 0.000000000000000000, 1.000000000000000000 ) ) ;
#131 = CARTESIAN_POINT ( 'NONE',  ( 0.000000000000000000, 0.000000000000000000, 5.000000000000000000 ) ) ;
#132 = EDGE_CURVE ( 'NONE', #106, #101, #169, .T. ) ;
#133 = AXIS2_PLACEMENT_3D ( 'NONE', #131, #212, #89 ) ;
#134 = CARTESIAN_POINT ( 'NONE',  ( 4.000000000000000000, 4.898587196589412829E-16, 165.0000000000000000 ) ) ;
#135 = CC_DESIGN_APPROVAL ( #141, ( #205 ) ) ;
#136 = DIRECTION ( 'NONE',  ( 0.000000000000000000, 0.000000000000000000, 1.000000000000000000 ) ) ;
#137 = FACE_BOUND ( 'NONE', #26, .T. ) ;
#138 = DATE_TIME_ROLE ( 'creation_date' ) ;
#139 = CIRCLE ( 'NONE', #217, 4.000000000000000000 ) ;
#140 = APPROVAL_DATE_TIME ( #219, #10 ) ;
#141 = APPROVAL ( #105, 'NEURÈENÝ' ) ;
#142 = LOCAL_TIME ( 9, 33, 11.00000000000000000, #79 ) ;
#143 = PERSON_AND_ORGANIZATION ( #80, #52 ) ;
#144 = PERSON_AND_ORGANIZATION_ROLE ( 'classification_officer' ) ;
#145 = ORIENTED_EDGE ( 'NONE', *, *, #164, .T. ) ;
#146 = APPROVAL_ROLE ( '' ) ;
#147 = SECURITY_CLASSIFICATION_LEVEL ( 'unclassified' ) ;
#148 = EDGE_LOOP ( 'NONE', ( #8, #181, #245, #48 ) ) ;
#149 = CARTESIAN_POINT ( 'NONE',  ( 4.000000000000000000, 4.898587196589412829E-16, 5.000000000000000000 ) ) ;
#150 = CARTESIAN_POINT ( 'NONE',  ( -4.000000000000000000, 0.000000000000000000, 5.000000000000000000 ) ) ;
#151 = FACE_OUTER_BOUND ( 'NONE', #148, .T. ) ;
#152 = DIRECTION ( 'NONE',  ( 1.000000000000000000, 0.000000000000000000, 0.000000000000000000 ) ) ;
#153 = AXIS2_PLACEMENT_3D ( 'NONE', #187, #11, #88 ) ;
#154 = PRODUCT_RELATED_PRODUCT_CATEGORY ( 'detail', '', ( #231 ) ) ;
#155 = PERSON_AND_ORGANIZATION ( #80, #52 ) ;
#156 = DESIGN_CONTEXT ( 'detailed design', #37, 'design' ) ;
#157 = CIRCLE ( 'NONE', #57, 7.000000000000000000 ) ;
#158 = VERTEX_POINT ( 'NONE', #254 ) ;
#159 = PRODUCT_DEFINITION_SHAPE ( 'NONE', 'NONE',  #32 ) ;
#160 = COORDINATED_UNIVERSAL_TIME_OFFSET ( 1, 0, .AHEAD. ) ;
#161 = ORIENTED_EDGE ( 'NONE', *, *, #65, .T. ) ;
#162 = CIRCLE ( 'NONE', #249, 7.000000000000000000 ) ;
#163 = AXIS2_PLACEMENT_3D ( 'NONE', #239, #39, #75 ) ;
#164 = EDGE_CURVE ( 'NONE', #158, #45, #7, .T. ) ;
#165 = APPROVAL_DATE_TIME ( #180, #141 ) ;
#166 = ORIENTED_EDGE ( 'NONE', *, *, #223, .T. ) ;
#167 = VECTOR ( 'NONE', #20, 1000.000000000000000 ) ;
#168 = ADVANCED_FACE ( 'NONE', ( #111 ), #34, .T. ) ;
#169 = LINE ( 'NONE', #134, #2 ) ;
#170 = CARTESIAN_POINT ( 'NONE',  ( -4.000000000000000000, 0.000000000000000000, 165.0000000000000000 ) ) ;
#171 = CLOSED_SHELL ( 'NONE', ( #129, #198, #92, #81, #119, #168, #13 ) ) ;
#172 = DIRECTION ( 'NONE',  ( -0.000000000000000000, -0.000000000000000000, -1.000000000000000000 ) ) ;
#173 = DIRECTION ( 'NONE',  ( -0.000000000000000000, -0.000000000000000000, -1.000000000000000000 ) ) ;
#174 = DIRECTION ( 'NONE',  ( 1.000000000000000000, 0.000000000000000000, 0.000000000000000000 ) ) ;
#175 = CARTESIAN_POINT ( 'NONE',  ( -7.000000000000000000, 0.000000000000000000, 5.000000000000000000 ) ) ;
#176 = PERSON_AND_ORGANIZATION_ROLE ( 'design_owner' ) ;
#177 = CALENDAR_DATE ( 2023, 30, 5 ) ;
#178 = EDGE_CURVE ( 'NONE', #199, #85, #162, .T. ) ;
#179 = ORIENTED_EDGE ( 'NONE', *, *, #247, .F. ) ;
#180 = DATE_AND_TIME ( #78, #142 ) ;
#181 = ORIENTED_EDGE ( 'NONE', *, *, #132, .T. ) ;
#182 = DIRECTION ( 'NONE',  ( 0.000000000000000000, 0.000000000000000000, 1.000000000000000000 ) ) ;
#183 = ORIENTED_EDGE ( 'NONE', *, *, #102, .T. ) ;
#184 = FACE_OUTER_BOUND ( 'NONE', #30, .T. ) ;
#185 = AXIS2_PLACEMENT_3D ( 'NONE', #108, #182, #188 ) ;
#186 = CC_DESIGN_SECURITY_CLASSIFICATION ( #205, ( #128 ) ) ;
#187 = CARTESIAN_POINT ( 'NONE',  ( 0.000000000000000000, 0.000000000000000000, 165.0000000000000000 ) ) ;
#188 = DIRECTION ( 'NONE',  ( 1.000000000000000000, 0.000000000000000000, -0.000000000000000000 ) ) ;
#189 = CARTESIAN_POINT ( 'NONE',  ( 7.000000000000000000, 8.572527594031473190E-16, 5.000000000000000000 ) ) ;
#190 = CC_DESIGN_PERSON_AND_ORGANIZATION_ASSIGNMENT ( #50, #144, ( #205 ) ) ;
#191 = DIRECTION ( 'NONE',  ( -0.000000000000000000, -0.000000000000000000, -1.000000000000000000 ) ) ;
#192 = CC_DESIGN_APPROVAL ( #218, ( #128 ) ) ;
#193 = APPROVAL_ROLE ( '' ) ;
#194 = DIRECTION ( 'NONE',  ( 1.000000000000000000, 0.000000000000000000, 0.000000000000000000 ) ) ;
#195 = DIRECTION ( 'NONE',  ( 0.000000000000000000, 0.000000000000000000, 1.000000000000000000 ) ) ;
#196 = DIRECTION ( 'NONE',  ( 0.000000000000000000, 0.000000000000000000, 1.000000000000000000 ) ) ;
#197 = CARTESIAN_POINT ( 'NONE',  ( 7.000000000000000000, 8.572527594031473190E-16, 0.000000000000000000 ) ) ;
#198 = ADVANCED_FACE ( 'NONE', ( #216 ), #117, .T. ) ;
#199 = VERTEX_POINT ( 'NONE', #197 ) ;
#200 = LOCAL_TIME ( 9, 33, 11.00000000000000000, #125 ) ;
#201 = ORIENTED_EDGE ( 'NONE', *, *, #164, .F. ) ;
#202 = CALENDAR_DATE ( 2023, 30, 5 ) ;
#203 = CIRCLE ( 'NONE', #237, 4.000000000000000000 ) ;
#204 = ORIENTED_EDGE ( 'NONE', *, *, #178, .F. ) ;
#205 = SECURITY_CLASSIFICATION ( '', '', #147 ) ;
#206 = PERSON_AND_ORGANIZATION_ROLE ( 'design_supplier' ) ;
#207 = FACE_OUTER_BOUND ( 'NONE', #61, .T. ) ;
#208 = CARTESIAN_POINT ( 'NONE',  ( -7.000000000000000000, 0.000000000000000000, 0.000000000000000000 ) ) ;
#209 = AXIS2_PLACEMENT_3D ( 'NONE', #35, #172, #113 ) ;
#210 =( GEOMETRIC_REPRESENTATION_CONTEXT ( 3 ) GLOBAL_UNCERTAINTY_ASSIGNED_CONTEXT ( ( #221 ) ) GLOBAL_UNIT_ASSIGNED_CONTEXT ( ( #16, #76, #74 ) ) REPRESENTATION_CONTEXT ( 'NONE', 'WORKASPACE' ) );
#211 = LINE ( 'NONE', #189, #213 ) ;
#212 = DIRECTION ( 'NONE',  ( 0.000000000000000000, 0.000000000000000000, 1.000000000000000000 ) ) ;
#213 = VECTOR ( 'NONE', #114, 1000.000000000000000 ) ;
#214 = DIRECTION ( 'NONE',  ( -1.000000000000000000, 0.000000000000000000, 0.000000000000000000 ) ) ;
#215 = PERSON_AND_ORGANIZATION_ROLE ( 'creator' ) ;
#216 = FACE_OUTER_BOUND ( 'NONE', #124, .T. ) ;
#217 = AXIS2_PLACEMENT_3D ( 'NONE', #1, #195, #174 ) ;
#218 = APPROVAL ( #58, 'NEURÈENÝ' ) ;
#219 = DATE_AND_TIME ( #4, #59 ) ;
#220 = PERSON_AND_ORGANIZATION ( #80, #52 ) ;
#221 = UNCERTAINTY_MEASURE_WITH_UNIT (LENGTH_MEASURE( 1.000000000000000082E-05 ), #16, 'distance_accuracy_value', 'NONE');
#222 = ORIENTED_EDGE ( 'NONE', *, *, #115, .T. ) ;
#223 = EDGE_CURVE ( 'NONE', #158, #85, #240, .T. ) ;
#224 = ORIENTED_EDGE ( 'NONE', *, *, #102, .F. ) ;
#225 = SHAPE_DEFINITION_REPRESENTATION ( #159, #29 ) ;
#226 = EDGE_LOOP ( 'NONE', ( #23, #204 ) ) ;
#227 = APPROVAL_DATE_TIME ( #103, #218 ) ;
#228 = EDGE_CURVE ( 'NONE', #85, #199, #157, .T. ) ;
#229 = DIRECTION ( 'NONE',  ( -1.000000000000000000, 0.000000000000000000, 0.000000000000000000 ) ) ;
#230 = DIRECTION ( 'NONE',  ( 1.000000000000000000, 0.000000000000000000, 0.000000000000000000 ) ) ;
#231 = PRODUCT ( '4f14', '4f14', '', ( #43 ) ) ;
#232 = CARTESIAN_POINT ( 'NONE',  ( 0.000000000000000000, 0.000000000000000000, 0.000000000000000000 ) ) ;
#233 = CYLINDRICAL_SURFACE ( 'NONE', #209, 4.000000000000000000 ) ;
#234 = CARTESIAN_POINT ( 'NONE',  ( 0.000000000000000000, 0.000000000000000000, 5.000000000000000000 ) ) ;
#235 = CC_DESIGN_PERSON_AND_ORGANIZATION_ASSIGNMENT ( #127, #47, ( #128 ) ) ;
#236 = DIRECTION ( 'NONE',  ( 0.000000000000000000, 0.000000000000000000, 1.000000000000000000 ) ) ;
#237 = AXIS2_PLACEMENT_3D ( 'NONE', #90, #136, #87 ) ;
#238 = CARTESIAN_POINT ( 'NONE',  ( 0.000000000000000000, 0.000000000000000000, 0.000000000000000000 ) ) ;
#239 = CARTESIAN_POINT ( 'NONE',  ( 0.000000000000000000, 0.000000000000000000, 0.000000000000000000 ) ) ;
#240 = LINE ( 'NONE', #175, #167 ) ;
#241 = EDGE_CURVE ( 'NONE', #101, #104, #139, .T. ) ;
#242 = APPLICATION_PROTOCOL_DEFINITION ( 'international standard', 'config_control_design', 1994, #37 ) ;
#243 = PERSON_AND_ORGANIZATION ( #80, #52 ) ;
#244 = ORIENTED_EDGE ( 'NONE', *, *, #223, .F. ) ;
#245 = ORIENTED_EDGE ( 'NONE', *, *, #241, .T. ) ;
#246 = VERTEX_POINT ( 'NONE', #98 ) ;
#247 = EDGE_CURVE ( 'NONE', #246, #106, #5, .T. ) ;
#248 = CARTESIAN_POINT ( 'NONE',  ( 4.000000000000000000, 4.898587196589412829E-16, 165.0000000000000000 ) ) ;
#249 = AXIS2_PLACEMENT_3D ( 'NONE', #232, #93, #18 ) ;
#250 = DIRECTION ( 'NONE',  ( 0.000000000000000000, 0.000000000000000000, 1.000000000000000000 ) ) ;
#251 = PLANE ( 'NONE',  #133 ) ;
#252 = DIRECTION ( 'NONE',  ( 0.000000000000000000, 0.000000000000000000, 1.000000000000000000 ) ) ;
#253 = CC_DESIGN_APPROVAL ( #10, ( #32 ) ) ;
#254 = CARTESIAN_POINT ( 'NONE',  ( -7.000000000000000000, 0.000000000000000000, 5.000000000000000000 ) ) ;
#255 = CALENDAR_DATE ( 2023, 30, 5 ) ;
ENDSEC;
END-ISO-10303-21;
