ISO-10303-21;
HEADER;
FILE_DESCRIPTION (( 'STEP AP203' ),
    '1' );
FILE_NAME ('4dae.STEP',
    '2023-01-02T15:32:39',
    ( '' ),
    ( '' ),
    'SwSTEP 2.0',
    'SolidWorks 2019',
    '' );
FILE_SCHEMA (( 'CONFIG_CONTROL_DESIGN' ));
ENDSEC;

DATA;
#1 = APPROVAL_ROLE ( '' ) ;
#2 = DIRECTION ( 'NONE',  ( 1.000000000000000000, 0.000000000000000000, 0.000000000000000000 ) ) ;
#3 = FACE_OUTER_BOUND ( 'NONE', #115, .T. ) ;
#4 =( NAMED_UNIT ( * ) SI_UNIT ( $, .STERADIAN. ) SOLID_ANGLE_UNIT ( ) );
#5 = DIRECTION ( 'NONE',  ( -1.000000000000000000, 0.000000000000000000, 0.000000000000000000 ) ) ;
#6 = AXIS2_PLACEMENT_3D ( 'NONE', #227, #77, #2 ) ;
#7 = DIRECTION ( 'NONE',  ( 0.000000000000000000, 0.000000000000000000, 1.000000000000000000 ) ) ;
#8 = LINE ( 'NONE', #86, #222 ) ;
#9 = APPROVAL ( #231, 'NEURÈENÝ' ) ;
#10 = EDGE_CURVE ( 'NONE', #155, #140, #50, .T. ) ;
#11 = AXIS2_PLACEMENT_3D ( 'NONE', #101, #247, #188 ) ;
#12 = EDGE_LOOP ( 'NONE', ( #17, #14 ) ) ;
#13 = APPROVAL_PERSON_ORGANIZATION ( #121, #66, #37 ) ;
#14 = ORIENTED_EDGE ( 'NONE', *, *, #69, .T. ) ;
#15 = AXIS2_PLACEMENT_3D ( 'NONE', #178, #202, #61 ) ;
#16 = PERSON_AND_ORGANIZATION ( #251, #207 ) ;
#17 = ORIENTED_EDGE ( 'NONE', *, *, #214, .T. ) ;
#18 = EDGE_CURVE ( 'NONE', #34, #199, #137, .T. ) ;
#19 = CALENDAR_DATE ( 2023, 2, 1 ) ;
#20 = FACE_OUTER_BOUND ( 'NONE', #72, .T. ) ;
#21 = PERSON_AND_ORGANIZATION ( #251, #207 ) ;
#22 = DIRECTION ( 'NONE',  ( -0.000000000000000000, -0.000000000000000000, -1.000000000000000000 ) ) ;
#23 = EDGE_CURVE ( 'NONE', #199, #34, #233, .T. ) ;
#24 = LINE ( 'NONE', #204, #172 ) ;
#25 = CC_DESIGN_SECURITY_CLASSIFICATION ( #46, ( #200 ) ) ;
#26 = PERSON_AND_ORGANIZATION ( #251, #207 ) ;
#27 = CARTESIAN_POINT ( 'NONE',  ( 0.000000000000000000, 0.000000000000000000, 43.89999999999999858 ) ) ;
#28 = DIRECTION ( 'NONE',  ( -0.000000000000000000, -0.000000000000000000, -1.000000000000000000 ) ) ;
#29 = CC_DESIGN_DATE_AND_TIME_ASSIGNMENT ( #42, #179, ( #182 ) ) ;
#30 = VECTOR ( 'NONE', #221, 1000.000000000000000 ) ;
#31 = EDGE_CURVE ( 'NONE', #234, #218, #124, .T. ) ;
#32 = COORDINATED_UNIVERSAL_TIME_OFFSET ( 1, 0, .AHEAD. ) ;
#33 = COORDINATED_UNIVERSAL_TIME_OFFSET ( 1, 0, .AHEAD. ) ;
#34 = VERTEX_POINT ( 'NONE', #149 ) ;
#35 = ORIENTED_EDGE ( 'NONE', *, *, #215, .T. ) ;
#36 = AXIS2_PLACEMENT_3D ( 'NONE', #161, #104, #5 ) ;
#37 = APPROVAL_ROLE ( '' ) ;
#38 = ORIENTED_EDGE ( 'NONE', *, *, #18, .F. ) ;
#39 = DIRECTION ( 'NONE',  ( 0.000000000000000000, 0.000000000000000000, 1.000000000000000000 ) ) ;
#40 = APPROVAL_DATE_TIME ( #254, #88 ) ;
#41 = CYLINDRICAL_SURFACE ( 'NONE', #15, 5.000000000000000000 ) ;
#42 = DATE_AND_TIME ( #198, #89 ) ;
#43 = DIRECTION ( 'NONE',  ( 1.000000000000000000, 0.000000000000000000, 0.000000000000000000 ) ) ;
#44 = PERSON_AND_ORGANIZATION_ROLE ( 'design_owner' ) ;
#45 = DIRECTION ( 'NONE',  ( -1.000000000000000000, 0.000000000000000000, 0.000000000000000000 ) ) ;
#46 = SECURITY_CLASSIFICATION ( '', '', #165 ) ;
#47 = DATE_TIME_ROLE ( 'classification_date' ) ;
#48 = CARTESIAN_POINT ( 'NONE',  ( -2.750000000000000000, 0.000000000000000000, 3.000000000000000000 ) ) ;
#49 = CALENDAR_DATE ( 2023, 2, 1 ) ;
#50 = CIRCLE ( 'NONE', #71, 2.750000000000000000 ) ;
#51 = ADVANCED_FACE ( 'NONE', ( #206 ), #80, .F. ) ;
#52 = ORIENTED_EDGE ( 'NONE', *, *, #31, .F. ) ;
#53 = ORIENTED_EDGE ( 'NONE', *, *, #229, .F. ) ;
#54 = ORIENTED_EDGE ( 'NONE', *, *, #171, .T. ) ;
#55 = ADVANCED_FACE ( 'NONE', ( #225 ), #41, .T. ) ;
#56 = CALENDAR_DATE ( 2023, 2, 1 ) ;
#57 = EDGE_LOOP ( 'NONE', ( #158, #250, #197, #120 ) ) ;
#58 = CARTESIAN_POINT ( 'NONE',  ( 0.000000000000000000, 0.000000000000000000, 43.89999999999999858 ) ) ;
#59 = CARTESIAN_POINT ( 'NONE',  ( 2.750000000000000000, 3.367778697655221012E-16, 43.89999999999999858 ) ) ;
#60 = ORIENTED_EDGE ( 'NONE', *, *, #94, .F. ) ;
#61 = DIRECTION ( 'NONE',  ( -1.000000000000000000, 0.000000000000000000, 0.000000000000000000 ) ) ;
#62 = DIRECTION ( 'NONE',  ( 0.000000000000000000, 0.000000000000000000, 1.000000000000000000 ) ) ;
#63 = DIRECTION ( 'NONE',  ( -0.000000000000000000, -0.000000000000000000, -1.000000000000000000 ) ) ;
#64 = CYLINDRICAL_SURFACE ( 'NONE', #36, 2.750000000000000000 ) ;
#65 = ADVANCED_BREP_SHAPE_REPRESENTATION ( '4dae', ( #105, #242 ), #248 ) ;
#66 = APPROVAL ( #201, 'NEURÈENÝ' ) ;
#67 = AXIS2_PLACEMENT_3D ( 'NONE', #184, #82, #43 ) ;
#68 = DATE_AND_TIME ( #49, #145 ) ;
#69 = EDGE_CURVE ( 'NONE', #216, #236, #209, .T. ) ;
#70 = ORIENTED_EDGE ( 'NONE', *, *, #94, .T. ) ;
#71 = AXIS2_PLACEMENT_3D ( 'NONE', #240, #7, #109 ) ;
#72 = EDGE_LOOP ( 'NONE', ( #196, #52, #70, #156 ) ) ;
#73 = PERSON_AND_ORGANIZATION ( #251, #207 ) ;
#74 = ORIENTED_EDGE ( 'NONE', *, *, #10, .F. ) ;
#75 = APPLICATION_PROTOCOL_DEFINITION ( 'international standard', 'config_control_design', 1994, #79 ) ;
#76 = CARTESIAN_POINT ( 'NONE',  ( 0.000000000000000000, 0.000000000000000000, 0.000000000000000000 ) ) ;
#77 = DIRECTION ( 'NONE',  ( 0.000000000000000000, 0.000000000000000000, 1.000000000000000000 ) ) ;
#78 = PERSON_AND_ORGANIZATION_ROLE ( 'design_supplier' ) ;
#79 = APPLICATION_CONTEXT ( 'configuration controlled 3d designs of mechanical parts and assemblies' ) ;
#80 = PLANE ( 'NONE',  #148 ) ;
#81 =( LENGTH_UNIT ( ) NAMED_UNIT ( * ) SI_UNIT ( .MILLI., .METRE. ) );
#82 = DIRECTION ( 'NONE',  ( 0.000000000000000000, 0.000000000000000000, 1.000000000000000000 ) ) ;
#83 = PRODUCT ( '4dae', '4dae', '', ( #252 ) ) ;
#84 = APPROVAL_DATE_TIME ( #187, #9 ) ;
#85 = PLANE ( 'NONE',  #97 ) ;
#86 = CARTESIAN_POINT ( 'NONE',  ( -5.000000000000000000, 0.000000000000000000, 3.000000000000000000 ) ) ;
#87 = AXIS2_PLACEMENT_3D ( 'NONE', #76, #126, #151 ) ;
#88 = APPROVAL ( #157, 'NEURÈENÝ' ) ;
#89 = LOCAL_TIME ( 16, 32, 39.00000000000000000, #219 ) ;
#90 = ORIENTED_EDGE ( 'NONE', *, *, #122, .F. ) ;
#91 = APPROVAL_PERSON_ORGANIZATION ( #73, #88, #1 ) ;
#92 = LOCAL_TIME ( 16, 32, 39.00000000000000000, #223 ) ;
#93 = ORIENTED_EDGE ( 'NONE', *, *, #23, .T. ) ;
#94 = EDGE_CURVE ( 'NONE', #234, #140, #166, .T. ) ;
#95 = ORIENTED_EDGE ( 'NONE', *, *, #102, .T. ) ;
#96 = CARTESIAN_POINT ( 'NONE',  ( 0.000000000000000000, 0.000000000000000000, 0.000000000000000000 ) ) ;
#97 = AXIS2_PLACEMENT_3D ( 'NONE', #244, #153, #228 ) ;
#98 = DIRECTION ( 'NONE',  ( 1.000000000000000000, 0.000000000000000000, 0.000000000000000000 ) ) ;
#99 = FACE_OUTER_BOUND ( 'NONE', #12, .T. ) ;
#100 = APPROVAL_DATE_TIME ( #146, #66 ) ;
#101 = CARTESIAN_POINT ( 'NONE',  ( 0.000000000000000000, 0.000000000000000000, 0.000000000000000000 ) ) ;
#102 = EDGE_CURVE ( 'NONE', #218, #155, #24, .T. ) ;
#103 = CARTESIAN_POINT ( 'NONE',  ( 0.000000000000000000, 0.000000000000000000, 43.89999999999999858 ) ) ;
#104 = DIRECTION ( 'NONE',  ( -0.000000000000000000, -0.000000000000000000, -1.000000000000000000 ) ) ;
#105 = MANIFOLD_SOLID_BREP ( 'Pøidat vysunutím3', #191 ) ;
#106 = DIRECTION ( 'NONE',  ( 1.000000000000000000, 0.000000000000000000, 0.000000000000000000 ) ) ;
#107 = CARTESIAN_POINT ( 'NONE',  ( 0.000000000000000000, 0.000000000000000000, 3.000000000000000000 ) ) ;
#108 = APPLICATION_CONTEXT ( 'configuration controlled 3d designs of mechanical parts and assemblies' ) ;
#109 = DIRECTION ( 'NONE',  ( 1.000000000000000000, 0.000000000000000000, 0.000000000000000000 ) ) ;
#110 = CARTESIAN_POINT ( 'NONE',  ( 0.000000000000000000, 0.000000000000000000, 3.000000000000000000 ) ) ;
#111 = AXIS2_PLACEMENT_3D ( 'NONE', #58, #181, #147 ) ;
#112 = LOCAL_TIME ( 16, 32, 39.00000000000000000, #141 ) ;
#113 = ADVANCED_FACE ( 'NONE', ( #20 ), #64, .T. ) ;
#114 = EDGE_LOOP ( 'NONE', ( #194, #95, #154, #60 ) ) ;
#115 = EDGE_LOOP ( 'NONE', ( #175, #35 ) ) ;
#116 = AXIS2_PLACEMENT_3D ( 'NONE', #123, #63, #45 ) ;
#117 = APPROVAL_PERSON_ORGANIZATION ( #26, #9, #134 ) ;
#118 = ORIENTED_EDGE ( 'NONE', *, *, #214, .F. ) ;
#119 = DIRECTION ( 'NONE',  ( -0.000000000000000000, -0.000000000000000000, -1.000000000000000000 ) ) ;
#120 = ORIENTED_EDGE ( 'NONE', *, *, #171, .F. ) ;
#121 = PERSON_AND_ORGANIZATION ( #251, #207 ) ;
#122 = EDGE_CURVE ( 'NONE', #140, #155, #186, .T. ) ;
#123 = CARTESIAN_POINT ( 'NONE',  ( 0.000000000000000000, 0.000000000000000000, 3.000000000000000000 ) ) ;
#124 = CIRCLE ( 'NONE', #111, 2.750000000000000000 ) ;
#125 = PERSON_AND_ORGANIZATION ( #251, #207 ) ;
#126 = DIRECTION ( 'NONE',  ( 0.000000000000000000, 0.000000000000000000, 1.000000000000000000 ) ) ;
#127 = DIRECTION ( 'NONE',  ( 0.000000000000000000, 0.000000000000000000, 1.000000000000000000 ) ) ;
#128 = FACE_BOUND ( 'NONE', #173, .T. ) ;
#129 = PRODUCT_RELATED_PRODUCT_CATEGORY ( 'detail', '', ( #83 ) ) ;
#130 = CARTESIAN_POINT ( 'NONE',  ( -5.000000000000000000, 0.000000000000000000, 3.000000000000000000 ) ) ;
#131 = CIRCLE ( 'NONE', #241, 2.750000000000000000 ) ;
#132 = FACE_OUTER_BOUND ( 'NONE', #114, .T. ) ;
#133 = PLANE ( 'NONE',  #190 ) ;
#134 = APPROVAL_ROLE ( '' ) ;
#135 = VECTOR ( 'NONE', #119, 1000.000000000000000 ) ;
#136 = ADVANCED_FACE ( 'NONE', ( #3 ), #85, .T. ) ;
#137 = CIRCLE ( 'NONE', #87, 5.000000000000000000 ) ;
#138 = CC_DESIGN_APPROVAL ( #88, ( #200 ) ) ;
#139 = CC_DESIGN_PERSON_AND_ORGANIZATION_ASSIGNMENT ( #125, #203, ( #200 ) ) ;
#140 = VERTEX_POINT ( 'NONE', #48 ) ;
#141 = COORDINATED_UNIVERSAL_TIME_OFFSET ( 1, 0, .AHEAD. ) ;
#142 = ADVANCED_FACE ( 'NONE', ( #128, #99 ), #133, .T. ) ;
#143 =( NAMED_UNIT ( * ) PLANE_ANGLE_UNIT ( ) SI_UNIT ( $, .RADIAN. ) );
#144 = CARTESIAN_POINT ( 'NONE',  ( -2.750000000000000000, 0.000000000000000000, 43.89999999999999858 ) ) ;
#145 = LOCAL_TIME ( 16, 32, 39.00000000000000000, #33 ) ;
#146 = DATE_AND_TIME ( #19, #112 ) ;
#147 = DIRECTION ( 'NONE',  ( 1.000000000000000000, 0.000000000000000000, 0.000000000000000000 ) ) ;
#148 = AXIS2_PLACEMENT_3D ( 'NONE', #226, #163, #168 ) ;
#149 = CARTESIAN_POINT ( 'NONE',  ( 5.000000000000000000, 6.123233995736766282E-16, 0.000000000000000000 ) ) ;
#150 = DIRECTION ( 'NONE',  ( 1.000000000000000000, 0.000000000000000000, 0.000000000000000000 ) ) ;
#151 = DIRECTION ( 'NONE',  ( 1.000000000000000000, 0.000000000000000000, 0.000000000000000000 ) ) ;
#152 = CIRCLE ( 'NONE', #230, 5.000000000000000000 ) ;
#153 = DIRECTION ( 'NONE',  ( 0.000000000000000000, 0.000000000000000000, 1.000000000000000000 ) ) ;
#154 = ORIENTED_EDGE ( 'NONE', *, *, #10, .T. ) ;
#155 = VERTEX_POINT ( 'NONE', #212 ) ;
#156 = ORIENTED_EDGE ( 'NONE', *, *, #122, .T. ) ;
#157 = APPROVAL_STATUS ( 'not_yet_approved' ) ;
#158 = ORIENTED_EDGE ( 'NONE', *, *, #69, .F. ) ;
#159 = ADVANCED_FACE ( 'NONE', ( #167 ), #245, .T. ) ;
#160 = CARTESIAN_POINT ( 'NONE',  ( 5.000000000000000000, 6.123233995736766282E-16, 3.000000000000000000 ) ) ;
#161 = CARTESIAN_POINT ( 'NONE',  ( 0.000000000000000000, 0.000000000000000000, 43.89999999999999858 ) ) ;
#162 = CARTESIAN_POINT ( 'NONE',  ( 5.000000000000000000, 6.123233995736766282E-16, 3.000000000000000000 ) ) ;
#163 = DIRECTION ( 'NONE',  ( 0.000000000000000000, 0.000000000000000000, 1.000000000000000000 ) ) ;
#164 = LOCAL_TIME ( 16, 32, 39.00000000000000000, #32 ) ;
#165 = SECURITY_CLASSIFICATION_LEVEL ( 'unclassified' ) ;
#166 = LINE ( 'NONE', #144, #30 ) ;
#167 = FACE_OUTER_BOUND ( 'NONE', #57, .T. ) ;
#168 = DIRECTION ( 'NONE',  ( 1.000000000000000000, 0.000000000000000000, -0.000000000000000000 ) ) ;
#169 = CARTESIAN_POINT ( 'NONE',  ( -5.000000000000000000, 0.000000000000000000, 0.000000000000000000 ) ) ;
#170 = ADVANCED_FACE ( 'NONE', ( #132 ), #208, .T. ) ;
#171 = EDGE_CURVE ( 'NONE', #236, #199, #8, .T. ) ;
#172 = VECTOR ( 'NONE', #22, 1000.000000000000000 ) ;
#173 = EDGE_LOOP ( 'NONE', ( #90, #74 ) ) ;
#174 = DESIGN_CONTEXT ( 'detailed design', #108, 'design' ) ;
#175 = ORIENTED_EDGE ( 'NONE', *, *, #31, .T. ) ;
#176 = APPLICATION_PROTOCOL_DEFINITION ( 'international standard', 'config_control_design', 1994, #108 ) ;
#177 = PERSON_AND_ORGANIZATION ( #251, #207 ) ;
#178 = CARTESIAN_POINT ( 'NONE',  ( 0.000000000000000000, 0.000000000000000000, 3.000000000000000000 ) ) ;
#179 = DATE_TIME_ROLE ( 'creation_date' ) ;
#180 = PRODUCT_DEFINITION_SHAPE ( 'NONE', 'NONE',  #182 ) ;
#181 = DIRECTION ( 'NONE',  ( 0.000000000000000000, 0.000000000000000000, 1.000000000000000000 ) ) ;
#182 = PRODUCT_DEFINITION ( 'NEZNÁMÝ', '', #200, #174 ) ;
#183 = LINE ( 'NONE', #160, #135 ) ;
#184 = CARTESIAN_POINT ( 'NONE',  ( 0.000000000000000000, 0.000000000000000000, 3.000000000000000000 ) ) ;
#185 = DIRECTION ( 'NONE',  ( 1.000000000000000000, 0.000000000000000000, -0.000000000000000000 ) ) ;
#186 = CIRCLE ( 'NONE', #67, 2.750000000000000000 ) ;
#187 = DATE_AND_TIME ( #193, #164 ) ;
#188 = DIRECTION ( 'NONE',  ( 1.000000000000000000, 0.000000000000000000, 0.000000000000000000 ) ) ;
#189 = DIRECTION ( 'NONE',  ( 0.000000000000000000, 0.000000000000000000, 1.000000000000000000 ) ) ;
#190 = AXIS2_PLACEMENT_3D ( 'NONE', #107, #39, #185 ) ;
#191 = CLOSED_SHELL ( 'NONE', ( #170, #159, #55, #142, #51, #113, #136 ) ) ;
#192 = CC_DESIGN_APPROVAL ( #9, ( #46 ) ) ;
#193 = CALENDAR_DATE ( 2023, 2, 1 ) ;
#194 = ORIENTED_EDGE ( 'NONE', *, *, #215, .F. ) ;
#195 = ORIENTED_EDGE ( 'NONE', *, *, #23, .F. ) ;
#196 = ORIENTED_EDGE ( 'NONE', *, *, #102, .F. ) ;
#197 = ORIENTED_EDGE ( 'NONE', *, *, #18, .T. ) ;
#198 = CALENDAR_DATE ( 2023, 2, 1 ) ;
#199 = VERTEX_POINT ( 'NONE', #169 ) ;
#200 = PRODUCT_DEFINITION_FORMATION_WITH_SPECIFIED_SOURCE ( 'LIBOVOLNÝ', '', #83, .NOT_KNOWN. ) ;
#201 = APPROVAL_STATUS ( 'not_yet_approved' ) ;
#202 = DIRECTION ( 'NONE',  ( -0.000000000000000000, -0.000000000000000000, -1.000000000000000000 ) ) ;
#203 = PERSON_AND_ORGANIZATION_ROLE ( 'creator' ) ;
#204 = CARTESIAN_POINT ( 'NONE',  ( 2.750000000000000000, 3.367778697655221012E-16, 43.89999999999999858 ) ) ;
#205 = CARTESIAN_POINT ( 'NONE',  ( -2.750000000000000000, 0.000000000000000000, 43.89999999999999858 ) ) ;
#206 = FACE_OUTER_BOUND ( 'NONE', #253, .T. ) ;
#207 = ORGANIZATION ( 'NEURÈENÝ', 'NEURÈENÝ', '' ) ;
#208 = CYLINDRICAL_SURFACE ( 'NONE', #213, 2.750000000000000000 ) ;
#209 = CIRCLE ( 'NONE', #6, 5.000000000000000000 ) ;
#210 = PERSON_AND_ORGANIZATION_ROLE ( 'classification_officer' ) ;
#211 = CC_DESIGN_PERSON_AND_ORGANIZATION_ASSIGNMENT ( #16, #44, ( #83 ) ) ;
#212 = CARTESIAN_POINT ( 'NONE',  ( 2.750000000000000000, 3.367778697655221012E-16, 3.000000000000000000 ) ) ;
#213 = AXIS2_PLACEMENT_3D ( 'NONE', #27, #255, #238 ) ;
#214 = EDGE_CURVE ( 'NONE', #236, #216, #152, .T. ) ;
#215 = EDGE_CURVE ( 'NONE', #218, #234, #131, .T. ) ;
#216 = VERTEX_POINT ( 'NONE', #162 ) ;
#217 = UNCERTAINTY_MEASURE_WITH_UNIT (LENGTH_MEASURE( 1.000000000000000082E-05 ), #81, 'distance_accuracy_value', 'NONE');
#218 = VERTEX_POINT ( 'NONE', #59 ) ;
#219 = COORDINATED_UNIVERSAL_TIME_OFFSET ( 1, 0, .AHEAD. ) ;
#220 = EDGE_LOOP ( 'NONE', ( #53, #118, #54, #93 ) ) ;
#221 = DIRECTION ( 'NONE',  ( -0.000000000000000000, -0.000000000000000000, -1.000000000000000000 ) ) ;
#222 = VECTOR ( 'NONE', #28, 1000.000000000000000 ) ;
#223 = COORDINATED_UNIVERSAL_TIME_OFFSET ( 1, 0, .AHEAD. ) ;
#224 = CC_DESIGN_DATE_AND_TIME_ASSIGNMENT ( #68, #47, ( #46 ) ) ;
#225 = FACE_OUTER_BOUND ( 'NONE', #220, .T. ) ;
#226 = CARTESIAN_POINT ( 'NONE',  ( 0.000000000000000000, 0.000000000000000000, 0.000000000000000000 ) ) ;
#227 = CARTESIAN_POINT ( 'NONE',  ( 0.000000000000000000, 0.000000000000000000, 3.000000000000000000 ) ) ;
#228 = DIRECTION ( 'NONE',  ( 1.000000000000000000, 0.000000000000000000, -0.000000000000000000 ) ) ;
#229 = EDGE_CURVE ( 'NONE', #216, #34, #183, .T. ) ;
#230 = AXIS2_PLACEMENT_3D ( 'NONE', #110, #189, #98 ) ;
#231 = APPROVAL_STATUS ( 'not_yet_approved' ) ;
#232 = CC_DESIGN_PERSON_AND_ORGANIZATION_ASSIGNMENT ( #21, #78, ( #200 ) ) ;
#233 = CIRCLE ( 'NONE', #11, 5.000000000000000000 ) ;
#234 = VERTEX_POINT ( 'NONE', #205 ) ;
#235 = CC_DESIGN_PERSON_AND_ORGANIZATION_ASSIGNMENT ( #243, #210, ( #46 ) ) ;
#236 = VERTEX_POINT ( 'NONE', #130 ) ;
#237 = PERSON_AND_ORGANIZATION_ROLE ( 'creator' ) ;
#238 = DIRECTION ( 'NONE',  ( -1.000000000000000000, 0.000000000000000000, 0.000000000000000000 ) ) ;
#239 = CC_DESIGN_PERSON_AND_ORGANIZATION_ASSIGNMENT ( #177, #237, ( #182 ) ) ;
#240 = CARTESIAN_POINT ( 'NONE',  ( 0.000000000000000000, 0.000000000000000000, 3.000000000000000000 ) ) ;
#241 = AXIS2_PLACEMENT_3D ( 'NONE', #103, #127, #106 ) ;
#242 = AXIS2_PLACEMENT_3D ( 'NONE', #96, #62, #150 ) ;
#243 = PERSON_AND_ORGANIZATION ( #251, #207 ) ;
#244 = CARTESIAN_POINT ( 'NONE',  ( 0.000000000000000000, 0.000000000000000000, 43.89999999999999858 ) ) ;
#245 = CYLINDRICAL_SURFACE ( 'NONE', #116, 5.000000000000000000 ) ;
#246 = SHAPE_DEFINITION_REPRESENTATION ( #180, #65 ) ;
#247 = DIRECTION ( 'NONE',  ( 0.000000000000000000, 0.000000000000000000, 1.000000000000000000 ) ) ;
#248 =( GEOMETRIC_REPRESENTATION_CONTEXT ( 3 ) GLOBAL_UNCERTAINTY_ASSIGNED_CONTEXT ( ( #217 ) ) GLOBAL_UNIT_ASSIGNED_CONTEXT ( ( #81, #143, #4 ) ) REPRESENTATION_CONTEXT ( 'NONE', 'WORKASPACE' ) );
#249 = CC_DESIGN_APPROVAL ( #66, ( #182 ) ) ;
#250 = ORIENTED_EDGE ( 'NONE', *, *, #229, .T. ) ;
#251 = PERSON ( 'NEURÈENÝ', 'NEURÈENÝ', 'NEURÈENÝ', ('NEURÈENÝ'), ('NEURÈENÝ'), ('NEURÈENÝ') ) ;
#252 = MECHANICAL_CONTEXT ( 'NONE', #79, 'mechanical' ) ;
#253 = EDGE_LOOP ( 'NONE', ( #195, #38 ) ) ;
#254 = DATE_AND_TIME ( #56, #92 ) ;
#255 = DIRECTION ( 'NONE',  ( -0.000000000000000000, -0.000000000000000000, -1.000000000000000000 ) ) ;
ENDSEC;
END-ISO-10303-21;
