ISO-10303-21;
HEADER;
FILE_DESCRIPTION (( 'STEP AP203' ),
    '1' );
FILE_NAME ('b636.STEP',
    '2022-06-20T10:02:13',
    ( '' ),
    ( '' ),
    'SwSTEP 2.0',
    'SolidWorks 2019',
    '' );
FILE_SCHEMA (( 'CONFIG_CONTROL_DESIGN' ));
ENDSEC;

DATA;
#1 = MECHANICAL_CONTEXT ( 'NONE', #213, 'mechanical' ) ;
#2 = FACE_BOUND ( 'NONE', #282, .T. ) ;
#3 = VECTOR ( 'NONE', #23, 1000.000000000000000 ) ;
#4 = AXIS2_PLACEMENT_3D ( 'NONE', #59, #301, #172 ) ;
#5 = CIRCLE ( 'NONE', #199, 0.2000000000000000944 ) ;
#6 = SECURITY_CLASSIFICATION_LEVEL ( 'unclassified' ) ;
#7 = CARTESIAN_POINT ( 'NONE',  ( 0.000000000000000000, 0.000000000000000000, 0.000000000000000000 ) ) ;
#8 = DESIGN_CONTEXT ( 'detailed design', #93, 'design' ) ;
#9 = EDGE_CURVE ( 'NONE', #144, #279, #175, .T. ) ;
#10 = DATE_TIME_ROLE ( 'classification_date' ) ;
#11 = AXIS2_PLACEMENT_3D ( 'NONE', #7, #270, #140 ) ;
#12 = DATE_AND_TIME ( #214, #126 ) ;
#13 = PERSON_AND_ORGANIZATION_ROLE ( 'design_owner' ) ;
#14 = CC_DESIGN_PERSON_AND_ORGANIZATION_ASSIGNMENT ( #99, #216, ( #155 ) ) ;
#15 = FACE_OUTER_BOUND ( 'NONE', #196, .T. ) ;
#16 = CIRCLE ( 'NONE', #114, 2.799999999999999822 ) ;
#17 = FACE_OUTER_BOUND ( 'NONE', #297, .T. ) ;
#18 = ORIENTED_EDGE ( 'NONE', *, *, #256, .F. ) ;
#19 = ADVANCED_FACE ( 'NONE', ( #230 ), #263, .F. ) ;
#20 = ORIENTED_EDGE ( 'NONE', *, *, #228, .T. ) ;
#21 = AXIS2_PLACEMENT_3D ( 'NONE', #142, #167, #218 ) ;
#22 = CARTESIAN_POINT ( 'NONE',  ( 0.000000000000000000, 0.000000000000000000, 163.0000000000000000 ) ) ;
#23 = DIRECTION ( 'NONE',  ( -0.000000000000000000, -0.000000000000000000, -1.000000000000000000 ) ) ;
#24 = VERTEX_POINT ( 'NONE', #205 ) ;
#25 =( LENGTH_UNIT ( ) NAMED_UNIT ( * ) SI_UNIT ( .MILLI., .METRE. ) );
#26 = VERTEX_POINT ( 'NONE', #127 ) ;
#27 = DIRECTION ( 'NONE',  ( -0.000000000000000000, -0.000000000000000000, -1.000000000000000000 ) ) ;
#28 = FACE_OUTER_BOUND ( 'NONE', #79, .T. ) ;
#29 = ADVANCED_FACE ( 'NONE', ( #264 ), #287, .T. ) ;
#30 = CARTESIAN_POINT ( 'NONE',  ( 5.000000000000000000, 6.123233995736766282E-16, 0.000000000000000000 ) ) ;
#31 = VECTOR ( 'NONE', #63, 1000.000000000000000 ) ;
#32 = DIRECTION ( 'NONE',  ( 1.000000000000000000, 0.000000000000000000, 0.000000000000000000 ) ) ;
#33 = PERSON_AND_ORGANIZATION_ROLE ( 'design_supplier' ) ;
#34 = CARTESIAN_POINT ( 'NONE',  ( 0.000000000000000000, 0.000000000000000000, 3.000000000000000000 ) ) ;
#35 = COORDINATED_UNIVERSAL_TIME_OFFSET ( 1, 0, .AHEAD. ) ;
#36 = CARTESIAN_POINT ( 'NONE',  ( 0.000000000000000000, 0.000000000000000000, 3.200000000000008171 ) ) ;
#37 = APPROVAL_PERSON_ORGANIZATION ( #94, #103, #166 ) ;
#38 = DATE_AND_TIME ( #290, #208 ) ;
#39 = CARTESIAN_POINT ( 'NONE',  ( 0.000000000000000000, 0.000000000000000000, 0.000000000000000000 ) ) ;
#40 = AXIS2_PLACEMENT_3D ( 'NONE', #143, #44, #67 ) ;
#41 = EDGE_CURVE ( 'NONE', #106, #26, #88, .T. ) ;
#42 = AXIS2_PLACEMENT_3D ( 'NONE', #154, #74, #238 ) ;
#43 = ORIENTED_EDGE ( 'NONE', *, *, #49, .F. ) ;
#44 = DIRECTION ( 'NONE',  ( 1.224646799147353207E-16, 1.000000000000000000, -0.000000000000000000 ) ) ;
#45 = CARTESIAN_POINT ( 'NONE',  ( 0.000000000000000000, 0.000000000000000000, 3.000000000000000000 ) ) ;
#46 = CC_DESIGN_APPROVAL ( #52, ( #98 ) ) ;
#47 = CARTESIAN_POINT ( 'NONE',  ( -2.799999999999999822, 3.429011037612589276E-16, 3.000000000000004441 ) ) ;
#48 = VERTEX_POINT ( 'NONE', #87 ) ;
#49 = EDGE_CURVE ( 'NONE', #106, #64, #5, .T. ) ;
#50 = CARTESIAN_POINT ( 'NONE',  ( 0.000000000000000000, 0.000000000000000000, 3.200000000000008171 ) ) ;
#51 = AXIS2_PLACEMENT_3D ( 'NONE', #195, #253, #81 ) ;
#52 = APPROVAL ( #244, 'NEURÈENÝ' ) ;
#53 = DIRECTION ( 'NONE',  ( 0.000000000000000000, 0.000000000000000000, -1.000000000000000000 ) ) ;
#54 = EDGE_CURVE ( 'NONE', #60, #279, #158, .T. ) ;
#55 = COORDINATED_UNIVERSAL_TIME_OFFSET ( 1, 0, .AHEAD. ) ;
#56 = CARTESIAN_POINT ( 'NONE',  ( 0.000000000000000000, 0.000000000000000000, 3.000000000000000000 ) ) ;
#57 = DATE_AND_TIME ( #159, #285 ) ;
#58 = APPLICATION_PROTOCOL_DEFINITION ( 'international standard', 'config_control_design', 1994, #93 ) ;
#59 = CARTESIAN_POINT ( 'NONE',  ( 0.000000000000000000, 0.000000000000000000, 163.0000000000000000 ) ) ;
#60 = VERTEX_POINT ( 'NONE', #30 ) ;
#61 = DIRECTION ( 'NONE',  ( 1.000000000000000000, 0.000000000000000000, 0.000000000000000000 ) ) ;
#62 = ORIENTED_EDGE ( 'NONE', *, *, #182, .F. ) ;
#63 = DIRECTION ( 'NONE',  ( -0.000000000000000000, -0.000000000000000000, -1.000000000000000000 ) ) ;
#64 = VERTEX_POINT ( 'NONE', #269 ) ;
#65 = EDGE_CURVE ( 'NONE', #64, #202, #292, .T. ) ;
#66 = CC_DESIGN_APPROVAL ( #103, ( #155 ) ) ;
#67 = DIRECTION ( 'NONE',  ( -1.000000000000000000, 1.224646799147353207E-16, 0.000000000000000000 ) ) ;
#68 = ORIENTED_EDGE ( 'NONE', *, *, #41, .T. ) ;
#69 = VECTOR ( 'NONE', #291, 1000.000000000000000 ) ;
#70 = ADVANCED_FACE ( 'NONE', ( #28 ), #303, .F. ) ;
#71 = DIRECTION ( 'NONE',  ( 0.000000000000000000, -1.000000000000000000, 0.000000000000000000 ) ) ;
#72 = CIRCLE ( 'NONE', #212, 5.000000000000000000 ) ;
#73 = DIRECTION ( 'NONE',  ( 0.000000000000000000, 0.000000000000000000, 1.000000000000000000 ) ) ;
#74 = DIRECTION ( 'NONE',  ( -0.000000000000000000, -0.000000000000000000, -1.000000000000000000 ) ) ;
#75 = CIRCLE ( 'NONE', #40, 0.2000000000000000944 ) ;
#76 = AXIS2_PLACEMENT_3D ( 'NONE', #207, #27, #90 ) ;
#77 = ADVANCED_FACE ( 'NONE', ( #2, #133 ), #130, .T. ) ;
#78 = APPROVAL_STATUS ( 'not_yet_approved' ) ;
#79 = EDGE_LOOP ( 'NONE', ( #281, #255, #284, #43 ) ) ;
#80 = CIRCLE ( 'NONE', #186, 5.000000000000000000 ) ;
#81 = DIRECTION ( 'NONE',  ( -1.000000000000000000, 0.000000000000000000, 0.000000000000000000 ) ) ;
#82 = ORIENTED_EDGE ( 'NONE', *, *, #219, .F. ) ;
#83 = EDGE_CURVE ( 'NONE', #85, #106, #115, .T. ) ;
#84 = ORIENTED_EDGE ( 'NONE', *, *, #134, .T. ) ;
#85 = VERTEX_POINT ( 'NONE', #111 ) ;
#86 = CIRCLE ( 'NONE', #151, 2.600000000000000089 ) ;
#87 = CARTESIAN_POINT ( 'NONE',  ( -2.600000000000000089, 0.000000000000000000, 163.0000000000000000 ) ) ;
#88 = CIRCLE ( 'NONE', #116, 2.600000000000000089 ) ;
#89 = CARTESIAN_POINT ( 'NONE',  ( 2.799999999999999822, 0.000000000000000000, 3.200000000000008171 ) ) ;
#90 = DIRECTION ( 'NONE',  ( 1.000000000000000000, 0.000000000000000000, 0.000000000000000000 ) ) ;
#91 = DIRECTION ( 'NONE',  ( 0.000000000000000000, 0.000000000000000000, 1.000000000000000000 ) ) ;
#92 = ORIENTED_EDGE ( 'NONE', *, *, #129, .F. ) ;
#93 = APPLICATION_CONTEXT ( 'configuration controlled 3d designs of mechanical parts and assemblies' ) ;
#94 = PERSON_AND_ORGANIZATION ( #145, #171 ) ;
#95 = CARTESIAN_POINT ( 'NONE',  ( 2.600000000000000089, 3.184081677783118191E-16, 163.0000000000000000 ) ) ;
#96 = PERSON_AND_ORGANIZATION ( #145, #171 ) ;
#97 = DIRECTION ( 'NONE',  ( 1.000000000000000000, 0.000000000000000000, 0.000000000000000000 ) ) ;
#98 = PRODUCT_DEFINITION ( 'NEZNÁMÝ', '', #257, #8 ) ;
#99 = PERSON_AND_ORGANIZATION ( #145, #171 ) ;
#100 = CARTESIAN_POINT ( 'NONE',  ( -2.600000000000000089, 0.000000000000000000, 163.0000000000000000 ) ) ;
#101 = DIRECTION ( 'NONE',  ( 1.000000000000000000, 0.000000000000000000, 0.000000000000000000 ) ) ;
#102 = AXIS2_PLACEMENT_3D ( 'NONE', #39, #305, #283 ) ;
#103 = APPROVAL ( #78, 'NEURÈENÝ' ) ;
#104 = ORIENTED_EDGE ( 'NONE', *, *, #54, .F. ) ;
#105 = DIRECTION ( 'NONE',  ( -1.000000000000000000, 0.000000000000000000, 0.000000000000000000 ) ) ;
#106 = VERTEX_POINT ( 'NONE', #138 ) ;
#107 = DIRECTION ( 'NONE',  ( 0.000000000000000000, 0.000000000000000000, 1.000000000000000000 ) ) ;
#108 = VECTOR ( 'NONE', #148, 1000.000000000000000 ) ;
#109 = CLOSED_SHELL ( 'NONE', ( #70, #288, #189, #29, #77, #306, #267, #113, #19 ) ) ;
#110 = DATE_AND_TIME ( #237, #198 ) ;
#111 = CARTESIAN_POINT ( 'NONE',  ( 2.600000000000000089, 3.184081677783118191E-16, 163.0000000000000000 ) ) ;
#112 = PERSON_AND_ORGANIZATION ( #145, #171 ) ;
#113 = ADVANCED_FACE ( 'NONE', ( #211 ), #276, .T. ) ;
#114 = AXIS2_PLACEMENT_3D ( 'NONE', #222, #220, #101 ) ;
#115 = LINE ( 'NONE', #95, #69 ) ;
#116 = AXIS2_PLACEMENT_3D ( 'NONE', #50, #73, #160 ) ;
#117 = APPROVAL_DATE_TIME ( #57, #118 ) ;
#118 = APPROVAL ( #190, 'NEURÈENÝ' ) ;
#119 = ORIENTED_EDGE ( 'NONE', *, *, #54, .T. ) ;
#120 = FACE_OUTER_BOUND ( 'NONE', #265, .T. ) ;
#121 = ORIENTED_EDGE ( 'NONE', *, *, #41, .F. ) ;
#122 = DIRECTION ( 'NONE',  ( 0.000000000000000000, 0.000000000000000000, 1.000000000000000000 ) ) ;
#123 =( GEOMETRIC_REPRESENTATION_CONTEXT ( 3 ) GLOBAL_UNCERTAINTY_ASSIGNED_CONTEXT ( ( #241 ) ) GLOBAL_UNIT_ASSIGNED_CONTEXT ( ( #25, #183, #286 ) ) REPRESENTATION_CONTEXT ( 'NONE', 'WORKASPACE' ) );
#124 = PLANE ( 'NONE',  #102 ) ;
#125 = ORIENTED_EDGE ( 'NONE', *, *, #232, .T. ) ;
#126 = LOCAL_TIME ( 12, 2, 13.00000000000000000, #35 ) ;
#127 = CARTESIAN_POINT ( 'NONE',  ( -2.600000000000000089, 0.000000000000000000, 3.200000000000008171 ) ) ;
#128 = CARTESIAN_POINT ( 'NONE',  ( 0.000000000000000000, 0.000000000000000000, 0.000000000000000000 ) ) ;
#129 = EDGE_CURVE ( 'NONE', #48, #85, #234, .T. ) ;
#130 = PLANE ( 'NONE',  #252 ) ;
#131 = CIRCLE ( 'NONE', #4, 2.600000000000000089 ) ;
#132 = COORDINATED_UNIVERSAL_TIME_OFFSET ( 1, 0, .AHEAD. ) ;
#133 = FACE_OUTER_BOUND ( 'NONE', #259, .T. ) ;
#134 = EDGE_CURVE ( 'NONE', #26, #106, #86, .T. ) ;
#135 = PERSON_AND_ORGANIZATION ( #145, #171 ) ;
#136 = CC_DESIGN_APPROVAL ( #118, ( #257 ) ) ;
#137 = PERSON_AND_ORGANIZATION ( #145, #171 ) ;
#138 = CARTESIAN_POINT ( 'NONE',  ( 2.600000000000000089, 3.184081677783118191E-16, 3.200000000000008171 ) ) ;
#139 = COORDINATED_UNIVERSAL_TIME_OFFSET ( 1, 0, .AHEAD. ) ;
#140 = DIRECTION ( 'NONE',  ( 1.000000000000000000, 0.000000000000000000, 0.000000000000000000 ) ) ;
#141 = PRODUCT_RELATED_PRODUCT_CATEGORY ( 'detail', '', ( #162 ) ) ;
#142 = CARTESIAN_POINT ( 'NONE',  ( 0.000000000000000000, 0.000000000000000000, 163.0000000000000000 ) ) ;
#143 = CARTESIAN_POINT ( 'NONE',  ( -2.799999999999999822, 3.429011037612588783E-16, 3.200000000000008171 ) ) ;
#144 = VERTEX_POINT ( 'NONE', #275 ) ;
#145 = PERSON ( 'NEURÈENÝ', 'NEURÈENÝ', 'NEURÈENÝ', ('NEURÈENÝ'), ('NEURÈENÝ'), ('NEURÈENÝ') ) ;
#146 = LINE ( 'NONE', #100, #31 ) ;
#147 = EDGE_LOOP ( 'NONE', ( #82, #121, #185, #18 ) ) ;
#148 = DIRECTION ( 'NONE',  ( -0.000000000000000000, -0.000000000000000000, -1.000000000000000000 ) ) ;
#149 = CARTESIAN_POINT ( 'NONE',  ( -5.000000000000000000, 0.000000000000000000, 3.000000000000000000 ) ) ;
#150 = FACE_OUTER_BOUND ( 'NONE', #251, .T. ) ;
#151 = AXIS2_PLACEMENT_3D ( 'NONE', #36, #294, #97 ) ;
#152 = ORIENTED_EDGE ( 'NONE', *, *, #256, .T. ) ;
#153 = ORIENTED_EDGE ( 'NONE', *, *, #280, .F. ) ;
#154 = CARTESIAN_POINT ( 'NONE',  ( 0.000000000000000000, 0.000000000000000000, 3.000000000000000000 ) ) ;
#155 = SECURITY_CLASSIFICATION ( '', '', #6 ) ;
#156 = DIRECTION ( 'NONE',  ( 0.000000000000000000, 0.000000000000000000, 1.000000000000000000 ) ) ;
#157 = CC_DESIGN_PERSON_AND_ORGANIZATION_ASSIGNMENT ( #112, #210, ( #257 ) ) ;
#158 = CIRCLE ( 'NONE', #163, 5.000000000000000000 ) ;
#159 = CALENDAR_DATE ( 2022, 20, 6 ) ;
#160 = DIRECTION ( 'NONE',  ( 1.000000000000000000, 0.000000000000000000, 0.000000000000000000 ) ) ;
#161 = APPROVAL_DATE_TIME ( #12, #52 ) ;
#162 = PRODUCT ( 'b636', 'b636', '', ( #1 ) ) ;
#163 = AXIS2_PLACEMENT_3D ( 'NONE', #128, #235, #233 ) ;
#164 = SHAPE_DEFINITION_REPRESENTATION ( #181, #197 ) ;
#165 = AXIS2_PLACEMENT_3D ( 'NONE', #22, #176, #105 ) ;
#166 = APPROVAL_ROLE ( '' ) ;
#167 = DIRECTION ( 'NONE',  ( 0.000000000000000000, 0.000000000000000000, 1.000000000000000000 ) ) ;
#168 = AXIS2_PLACEMENT_3D ( 'NONE', #184, #289, #266 ) ;
#169 = AXIS2_PLACEMENT_3D ( 'NONE', #245, #239, #296 ) ;
#170 = ORIENTED_EDGE ( 'NONE', *, *, #206, .F. ) ;
#171 = ORGANIZATION ( 'NEURÈENÝ', 'NEURÈENÝ', '' ) ;
#172 = DIRECTION ( 'NONE',  ( 1.000000000000000000, 0.000000000000000000, 0.000000000000000000 ) ) ;
#173 = ORIENTED_EDGE ( 'NONE', *, *, #9, .T. ) ;
#174 = CARTESIAN_POINT ( 'NONE',  ( -5.000000000000000000, 0.000000000000000000, 0.000000000000000000 ) ) ;
#175 = LINE ( 'NONE', #149, #3 ) ;
#176 = DIRECTION ( 'NONE',  ( -0.000000000000000000, -0.000000000000000000, -1.000000000000000000 ) ) ;
#177 = ORIENTED_EDGE ( 'NONE', *, *, #65, .T. ) ;
#178 = DIRECTION ( 'NONE',  ( 1.000000000000000000, 0.000000000000000000, 0.000000000000000000 ) ) ;
#179 = ORIENTED_EDGE ( 'NONE', *, *, #182, .T. ) ;
#180 = CARTESIAN_POINT ( 'NONE',  ( 0.000000000000000000, 0.000000000000000000, 3.200000000000008171 ) ) ;
#181 = PRODUCT_DEFINITION_SHAPE ( 'NONE', 'NONE',  #98 ) ;
#182 = EDGE_CURVE ( 'NONE', #279, #60, #268, .T. ) ;
#183 =( NAMED_UNIT ( * ) PLANE_ANGLE_UNIT ( ) SI_UNIT ( $, .RADIAN. ) );
#184 = CARTESIAN_POINT ( 'NONE',  ( 0.000000000000000000, 0.000000000000000000, 3.200000000000008171 ) ) ;
#185 = ORIENTED_EDGE ( 'NONE', *, *, #49, .T. ) ;
#186 = AXIS2_PLACEMENT_3D ( 'NONE', #250, #122, #61 ) ;
#187 = DATE_TIME_ROLE ( 'creation_date' ) ;
#188 = PERSON_AND_ORGANIZATION ( #145, #171 ) ;
#189 = ADVANCED_FACE ( 'NONE', ( #15 ), #192, .T. ) ;
#190 = APPROVAL_STATUS ( 'not_yet_approved' ) ;
#191 = LOCAL_TIME ( 12, 2, 13.00000000000000000, #132 ) ;
#192 = CYLINDRICAL_SURFACE ( 'NONE', #249, 5.000000000000000000 ) ;
#193 = DIRECTION ( 'NONE',  ( -0.000000000000000000, -0.000000000000000000, -1.000000000000000000 ) ) ;
#194 = EDGE_LOOP ( 'NONE', ( #254, #277 ) ) ;
#195 = CARTESIAN_POINT ( 'NONE',  ( 0.000000000000000000, 0.000000000000000000, 163.0000000000000000 ) ) ;
#196 = EDGE_LOOP ( 'NONE', ( #200, #299, #119, #227 ) ) ;
#197 = ADVANCED_BREP_SHAPE_REPRESENTATION ( 'b636', ( #217, #300 ), #123 ) ;
#198 = LOCAL_TIME ( 12, 2, 13.00000000000000000, #139 ) ;
#199 = AXIS2_PLACEMENT_3D ( 'NONE', #89, #71, #53 ) ;
#200 = ORIENTED_EDGE ( 'NONE', *, *, #242, .F. ) ;
#201 = CC_DESIGN_PERSON_AND_ORGANIZATION_ASSIGNMENT ( #135, #13, ( #162 ) ) ;
#202 = VERTEX_POINT ( 'NONE', #47 ) ;
#203 = DIRECTION ( 'NONE',  ( 1.000000000000000000, 0.000000000000000000, 0.000000000000000000 ) ) ;
#204 = DIRECTION ( 'NONE',  ( 1.000000000000000000, 0.000000000000000000, -0.000000000000000000 ) ) ;
#205 = CARTESIAN_POINT ( 'NONE',  ( 5.000000000000000000, 6.123233995736766282E-16, 3.000000000000000000 ) ) ;
#206 = EDGE_CURVE ( 'NONE', #85, #48, #131, .T. ) ;
#207 = CARTESIAN_POINT ( 'NONE',  ( 0.000000000000000000, 0.000000000000000000, 3.000000000000000000 ) ) ;
#208 = LOCAL_TIME ( 12, 2, 13.00000000000000000, #273 ) ;
#209 = APPROVAL_ROLE ( '' ) ;
#210 = PERSON_AND_ORGANIZATION_ROLE ( 'creator' ) ;
#211 = FACE_OUTER_BOUND ( 'NONE', #194, .T. ) ;
#212 = AXIS2_PLACEMENT_3D ( 'NONE', #45, #226, #178 ) ;
#213 = APPLICATION_CONTEXT ( 'configuration controlled 3d designs of mechanical parts and assemblies' ) ;
#214 = CALENDAR_DATE ( 2022, 20, 6 ) ;
#215 = CC_DESIGN_PERSON_AND_ORGANIZATION_ASSIGNMENT ( #96, #293, ( #98 ) ) ;
#216 = PERSON_AND_ORGANIZATION_ROLE ( 'classification_officer' ) ;
#217 = MANIFOLD_SOLID_BREP ( 'Zaoblit1', #109 ) ;
#218 = DIRECTION ( 'NONE',  ( 1.000000000000000000, 0.000000000000000000, 0.000000000000000000 ) ) ;
#219 = EDGE_CURVE ( 'NONE', #26, #202, #75, .T. ) ;
#220 = DIRECTION ( 'NONE',  ( -0.000000000000000000, -0.000000000000000000, -1.000000000000000000 ) ) ;
#221 = AXIS2_PLACEMENT_3D ( 'NONE', #180, #91, #32 ) ;
#222 = CARTESIAN_POINT ( 'NONE',  ( 0.000000000000000000, 0.000000000000000000, 3.000000000000000000 ) ) ;
#223 = EDGE_LOOP ( 'NONE', ( #153, #261, #173, #179 ) ) ;
#224 = CYLINDRICAL_SURFACE ( 'NONE', #165, 2.600000000000000089 ) ;
#225 = ORIENTED_EDGE ( 'NONE', *, *, #83, .T. ) ;
#226 = DIRECTION ( 'NONE',  ( 0.000000000000000000, 0.000000000000000000, 1.000000000000000000 ) ) ;
#227 = ORIENTED_EDGE ( 'NONE', *, *, #9, .F. ) ;
#228 = EDGE_CURVE ( 'NONE', #144, #24, #80, .T. ) ;
#229 = DIRECTION ( 'NONE',  ( -1.000000000000000000, 0.000000000000000000, 0.000000000000000000 ) ) ;
#230 = FACE_OUTER_BOUND ( 'NONE', #147, .T. ) ;
#231 = APPLICATION_PROTOCOL_DEFINITION ( 'international standard', 'config_control_design', 1994, #213 ) ;
#232 = EDGE_CURVE ( 'NONE', #48, #26, #146, .T. ) ;
#233 = DIRECTION ( 'NONE',  ( 1.000000000000000000, 0.000000000000000000, 0.000000000000000000 ) ) ;
#234 = CIRCLE ( 'NONE', #21, 2.600000000000000089 ) ;
#235 = DIRECTION ( 'NONE',  ( 0.000000000000000000, 0.000000000000000000, 1.000000000000000000 ) ) ;
#236 = CC_DESIGN_DATE_AND_TIME_ASSIGNMENT ( #274, #10, ( #155 ) ) ;
#237 = CALENDAR_DATE ( 2022, 20, 6 ) ;
#238 = DIRECTION ( 'NONE',  ( -1.000000000000000000, 0.000000000000000000, 0.000000000000000000 ) ) ;
#239 = DIRECTION ( 'NONE',  ( 0.000000000000000000, 0.000000000000000000, 1.000000000000000000 ) ) ;
#240 = PERSON_AND_ORGANIZATION ( #145, #171 ) ;
#241 = UNCERTAINTY_MEASURE_WITH_UNIT (LENGTH_MEASURE( 1.000000000000000082E-05 ), #25, 'distance_accuracy_value', 'NONE');
#242 = EDGE_CURVE ( 'NONE', #24, #144, #72, .T. ) ;
#243 = CC_DESIGN_SECURITY_CLASSIFICATION ( #155, ( #257 ) ) ;
#244 = APPROVAL_STATUS ( 'not_yet_approved' ) ;
#245 = CARTESIAN_POINT ( 'NONE',  ( 0.000000000000000000, 0.000000000000000000, 163.0000000000000000 ) ) ;
#246 = APPROVAL_DATE_TIME ( #110, #103 ) ;
#247 = CC_DESIGN_DATE_AND_TIME_ASSIGNMENT ( #38, #187, ( #98 ) ) ;
#248 = CARTESIAN_POINT ( 'NONE',  ( 5.000000000000000000, 6.123233995736766282E-16, 3.000000000000000000 ) ) ;
#249 = AXIS2_PLACEMENT_3D ( 'NONE', #34, #193, #229 ) ;
#250 = CARTESIAN_POINT ( 'NONE',  ( 0.000000000000000000, 0.000000000000000000, 3.000000000000000000 ) ) ;
#251 = EDGE_LOOP ( 'NONE', ( #62, #104 ) ) ;
#252 = AXIS2_PLACEMENT_3D ( 'NONE', #56, #107, #204 ) ;
#253 = DIRECTION ( 'NONE',  ( -0.000000000000000000, -0.000000000000000000, -1.000000000000000000 ) ) ;
#254 = ORIENTED_EDGE ( 'NONE', *, *, #129, .T. ) ;
#255 = ORIENTED_EDGE ( 'NONE', *, *, #219, .T. ) ;
#256 = EDGE_CURVE ( 'NONE', #202, #64, #16, .T. ) ;
#257 = PRODUCT_DEFINITION_FORMATION_WITH_SPECIFIED_SOURCE ( 'LIBOVOLNÝ', '', #162, .NOT_KNOWN. ) ;
#258 = CYLINDRICAL_SURFACE ( 'NONE', #51, 2.600000000000000089 ) ;
#259 = EDGE_LOOP ( 'NONE', ( #20, #307 ) ) ;
#260 = CARTESIAN_POINT ( 'NONE',  ( 0.000000000000000000, 0.000000000000000000, 0.000000000000000000 ) ) ;
#261 = ORIENTED_EDGE ( 'NONE', *, *, #228, .F. ) ;
#262 = APPROVAL_PERSON_ORGANIZATION ( #188, #118, #209 ) ;
#263 = TOROIDAL_SURFACE ( 'NONE', #221, 2.799999999999999822, 0.2000000000000000111 ) ;
#264 = FACE_OUTER_BOUND ( 'NONE', #223, .T. ) ;
#265 = EDGE_LOOP ( 'NONE', ( #170, #225, #68, #302 ) ) ;
#266 = DIRECTION ( 'NONE',  ( 1.000000000000000000, 0.000000000000000000, 0.000000000000000000 ) ) ;
#267 = ADVANCED_FACE ( 'NONE', ( #17 ), #258, .T. ) ;
#268 = CIRCLE ( 'NONE', #11, 5.000000000000000000 ) ;
#269 = CARTESIAN_POINT ( 'NONE',  ( 2.799999999999999822, 0.000000000000000000, 3.000000000000004441 ) ) ;
#270 = DIRECTION ( 'NONE',  ( 0.000000000000000000, 0.000000000000000000, 1.000000000000000000 ) ) ;
#271 = CC_DESIGN_PERSON_AND_ORGANIZATION_ASSIGNMENT ( #240, #33, ( #257 ) ) ;
#272 = APPROVAL_ROLE ( '' ) ;
#273 = COORDINATED_UNIVERSAL_TIME_OFFSET ( 1, 0, .AHEAD. ) ;
#274 = DATE_AND_TIME ( #295, #191 ) ;
#275 = CARTESIAN_POINT ( 'NONE',  ( -5.000000000000000000, 0.000000000000000000, 3.000000000000000000 ) ) ;
#276 = PLANE ( 'NONE',  #169 ) ;
#277 = ORIENTED_EDGE ( 'NONE', *, *, #206, .T. ) ;
#278 = APPROVAL_PERSON_ORGANIZATION ( #137, #52, #272 ) ;
#279 = VERTEX_POINT ( 'NONE', #174 ) ;
#280 = EDGE_CURVE ( 'NONE', #24, #60, #298, .T. ) ;
#281 = ORIENTED_EDGE ( 'NONE', *, *, #134, .F. ) ;
#282 = EDGE_LOOP ( 'NONE', ( #177, #152 ) ) ;
#283 = DIRECTION ( 'NONE',  ( 1.000000000000000000, 0.000000000000000000, -0.000000000000000000 ) ) ;
#284 = ORIENTED_EDGE ( 'NONE', *, *, #65, .F. ) ;
#285 = LOCAL_TIME ( 12, 2, 13.00000000000000000, #55 ) ;
#286 =( NAMED_UNIT ( * ) SI_UNIT ( $, .STERADIAN. ) SOLID_ANGLE_UNIT ( ) );
#287 = CYLINDRICAL_SURFACE ( 'NONE', #42, 5.000000000000000000 ) ;
#288 = ADVANCED_FACE ( 'NONE', ( #120 ), #224, .T. ) ;
#289 = DIRECTION ( 'NONE',  ( 0.000000000000000000, 0.000000000000000000, 1.000000000000000000 ) ) ;
#290 = CALENDAR_DATE ( 2022, 20, 6 ) ;
#291 = DIRECTION ( 'NONE',  ( -0.000000000000000000, -0.000000000000000000, -1.000000000000000000 ) ) ;
#292 = CIRCLE ( 'NONE', #76, 2.799999999999999822 ) ;
#293 = PERSON_AND_ORGANIZATION_ROLE ( 'creator' ) ;
#294 = DIRECTION ( 'NONE',  ( 0.000000000000000000, 0.000000000000000000, 1.000000000000000000 ) ) ;
#295 = CALENDAR_DATE ( 2022, 20, 6 ) ;
#296 = DIRECTION ( 'NONE',  ( 1.000000000000000000, 0.000000000000000000, -0.000000000000000000 ) ) ;
#297 = EDGE_LOOP ( 'NONE', ( #304, #92, #125, #84 ) ) ;
#298 = LINE ( 'NONE', #248, #108 ) ;
#299 = ORIENTED_EDGE ( 'NONE', *, *, #280, .T. ) ;
#300 = AXIS2_PLACEMENT_3D ( 'NONE', #260, #156, #203 ) ;
#301 = DIRECTION ( 'NONE',  ( 0.000000000000000000, 0.000000000000000000, 1.000000000000000000 ) ) ;
#302 = ORIENTED_EDGE ( 'NONE', *, *, #232, .F. ) ;
#303 = TOROIDAL_SURFACE ( 'NONE', #168, 2.799999999999999822, 0.2000000000000000111 ) ;
#304 = ORIENTED_EDGE ( 'NONE', *, *, #83, .F. ) ;
#305 = DIRECTION ( 'NONE',  ( 0.000000000000000000, 0.000000000000000000, 1.000000000000000000 ) ) ;
#306 = ADVANCED_FACE ( 'NONE', ( #150 ), #124, .F. ) ;
#307 = ORIENTED_EDGE ( 'NONE', *, *, #242, .T. ) ;
ENDSEC;
END-ISO-10303-21;
