ISO-10303-21;
HEADER;
FILE_DESCRIPTION (( 'STEP AP203' ),
    '1' );
FILE_NAME ('7863.STEP',
    '2023-02-13T07:47:13',
    ( '' ),
    ( '' ),
    'SwSTEP 2.0',
    'SolidWorks 2019',
    '' );
FILE_SCHEMA (( 'CONFIG_CONTROL_DESIGN' ));
ENDSEC;

DATA;
#1 = CARTESIAN_POINT ( 'NONE',  ( 0.000000000000000000, 0.000000000000000000, 200.0000000000000000 ) ) ;
#2 = CALENDAR_DATE ( 2023, 13, 2 ) ;
#3 = CARTESIAN_POINT ( 'NONE',  ( 0.000000000000000000, 0.000000000000000000, 10.00000000000000000 ) ) ;
#4 = PERSON_AND_ORGANIZATION ( #16, #72 ) ;
#5 = DIRECTION ( 'NONE',  ( 1.000000000000000000, 0.000000000000000000, 0.000000000000000000 ) ) ;
#6 = CIRCLE ( 'NONE', #153, 16.00000000000000000 ) ;
#7 = PRODUCT ( '7863', '7863', '', ( #179 ) ) ;
#8 = ORIENTED_EDGE ( 'NONE', *, *, #240, .F. ) ;
#9 = PRODUCT_RELATED_PRODUCT_CATEGORY ( 'detail', '', ( #7 ) ) ;
#10 = ORIENTED_EDGE ( 'NONE', *, *, #83, .T. ) ;
#11 = ORIENTED_EDGE ( 'NONE', *, *, #246, .F. ) ;
#12 = CARTESIAN_POINT ( 'NONE',  ( 16.00000000000000000, 1.959434878635765131E-15, 200.0000000000000000 ) ) ;
#13 = CIRCLE ( 'NONE', #191, 20.00000000000000000 ) ;
#14 = PERSON_AND_ORGANIZATION ( #16, #72 ) ;
#15 = AXIS2_PLACEMENT_3D ( 'NONE', #221, #129, #5 ) ;
#16 = PERSON ( 'NEURÈENÝ', 'NEURÈENÝ', 'NEURÈENÝ', ('NEURÈENÝ'), ('NEURÈENÝ'), ('NEURÈENÝ') ) ;
#17 = CARTESIAN_POINT ( 'NONE',  ( 0.000000000000000000, 0.000000000000000000, 200.0000000000000000 ) ) ;
#18 =( NAMED_UNIT ( * ) SI_UNIT ( $, .STERADIAN. ) SOLID_ANGLE_UNIT ( ) );
#19 = CARTESIAN_POINT ( 'NONE',  ( -20.00000000000000000, 0.000000000000000000, 10.00000000000000000 ) ) ;
#20 = ORIENTED_EDGE ( 'NONE', *, *, #167, .T. ) ;
#21 = AXIS2_PLACEMENT_3D ( 'NONE', #164, #143, #188 ) ;
#22 = DATE_AND_TIME ( #207, #25 ) ;
#23 = PLANE ( 'NONE',  #21 ) ;
#24 = EDGE_CURVE ( 'NONE', #168, #166, #78, .T. ) ;
#25 = LOCAL_TIME ( 8, 47, 13.00000000000000000, #187 ) ;
#26 = VERTEX_POINT ( 'NONE', #241 ) ;
#27 = AXIS2_PLACEMENT_3D ( 'NONE', #133, #49, #121 ) ;
#28 = APPROVAL ( #58, 'NEURÈENÝ' ) ;
#29 = ORIENTED_EDGE ( 'NONE', *, *, #240, .T. ) ;
#30 = EDGE_CURVE ( 'NONE', #87, #168, #13, .T. ) ;
#31 = DIRECTION ( 'NONE',  ( 1.000000000000000000, 0.000000000000000000, 0.000000000000000000 ) ) ;
#32 = CARTESIAN_POINT ( 'NONE',  ( 0.000000000000000000, 0.000000000000000000, 200.0000000000000000 ) ) ;
#33 = DIRECTION ( 'NONE',  ( 1.000000000000000000, 0.000000000000000000, 0.000000000000000000 ) ) ;
#34 = PERSON_AND_ORGANIZATION ( #16, #72 ) ;
#35 = DIRECTION ( 'NONE',  ( -1.000000000000000000, 0.000000000000000000, 0.000000000000000000 ) ) ;
#36 = CARTESIAN_POINT ( 'NONE',  ( -16.00000000000000000, 0.000000000000000000, 200.0000000000000000 ) ) ;
#37 = DIRECTION ( 'NONE',  ( 0.000000000000000000, 0.000000000000000000, 1.000000000000000000 ) ) ;
#38 = CYLINDRICAL_SURFACE ( 'NONE', #114, 20.00000000000000000 ) ;
#39 = VECTOR ( 'NONE', #254, 1000.000000000000000 ) ;
#40 = SHAPE_DEFINITION_REPRESENTATION ( #67, #92 ) ;
#41 = EDGE_CURVE ( 'NONE', #26, #173, #6, .T. ) ;
#42 = VERTEX_POINT ( 'NONE', #222 ) ;
#43 = EDGE_CURVE ( 'NONE', #168, #87, #218, .T. ) ;
#44 = ORIENTED_EDGE ( 'NONE', *, *, #83, .F. ) ;
#45 = ORIENTED_EDGE ( 'NONE', *, *, #68, .F. ) ;
#46 = AXIS2_PLACEMENT_3D ( 'NONE', #52, #37, #120 ) ;
#47 = DIRECTION ( 'NONE',  ( 0.000000000000000000, 0.000000000000000000, 1.000000000000000000 ) ) ;
#48 = DATE_AND_TIME ( #98, #214 ) ;
#49 = DIRECTION ( 'NONE',  ( 0.000000000000000000, 0.000000000000000000, 1.000000000000000000 ) ) ;
#50 = CALENDAR_DATE ( 2023, 13, 2 ) ;
#51 = CC_DESIGN_PERSON_AND_ORGANIZATION_ASSIGNMENT ( #75, #159, ( #209 ) ) ;
#52 = CARTESIAN_POINT ( 'NONE',  ( 0.000000000000000000, 0.000000000000000000, 0.000000000000000000 ) ) ;
#53 = ORIENTED_EDGE ( 'NONE', *, *, #167, .F. ) ;
#54 = PERSON_AND_ORGANIZATION_ROLE ( 'creator' ) ;
#55 = CYLINDRICAL_SURFACE ( 'NONE', #71, 16.00000000000000000 ) ;
#56 = DIRECTION ( 'NONE',  ( -0.000000000000000000, -0.000000000000000000, -1.000000000000000000 ) ) ;
#57 = CARTESIAN_POINT ( 'NONE',  ( 0.000000000000000000, 0.000000000000000000, 200.0000000000000000 ) ) ;
#58 = APPROVAL_STATUS ( 'not_yet_approved' ) ;
#59 = CARTESIAN_POINT ( 'NONE',  ( 16.00000000000000000, 1.959434878635765131E-15, 200.0000000000000000 ) ) ;
#60 = MANIFOLD_SOLID_BREP ( 'Pøidat vysunutím3', #144 ) ;
#61 = APPROVAL_PERSON_ORGANIZATION ( #176, #132, #234 ) ;
#62 = APPROVAL_PERSON_ORGANIZATION ( #4, #150, #157 ) ;
#63 = ORIENTED_EDGE ( 'NONE', *, *, #43, .T. ) ;
#64 = VECTOR ( 'NONE', #180, 1000.000000000000000 ) ;
#65 = ORIENTED_EDGE ( 'NONE', *, *, #103, .F. ) ;
#66 = EDGE_LOOP ( 'NONE', ( #192, #152, #29, #151 ) ) ;
#67 = PRODUCT_DEFINITION_SHAPE ( 'NONE', 'NONE',  #193 ) ;
#68 = EDGE_CURVE ( 'NONE', #231, #42, #106, .T. ) ;
#69 = LINE ( 'NONE', #12, #100 ) ;
#70 = CARTESIAN_POINT ( 'NONE',  ( 20.00000000000000000, 2.449293598294706513E-15, 10.00000000000000000 ) ) ;
#71 = AXIS2_PLACEMENT_3D ( 'NONE', #32, #202, #84 ) ;
#72 = ORGANIZATION ( 'NEURÈENÝ', 'NEURÈENÝ', '' ) ;
#73 = DIRECTION ( 'NONE',  ( -0.000000000000000000, -0.000000000000000000, -1.000000000000000000 ) ) ;
#74 = DIRECTION ( 'NONE',  ( 1.000000000000000000, 0.000000000000000000, 0.000000000000000000 ) ) ;
#75 = PERSON_AND_ORGANIZATION ( #16, #72 ) ;
#76 = CARTESIAN_POINT ( 'NONE',  ( 0.000000000000000000, 0.000000000000000000, 0.000000000000000000 ) ) ;
#77 = DESIGN_CONTEXT ( 'detailed design', #250, 'design' ) ;
#78 = LINE ( 'NONE', #19, #64 ) ;
#79 = SECURITY_CLASSIFICATION_LEVEL ( 'unclassified' ) ;
#80 = CC_DESIGN_DATE_AND_TIME_ASSIGNMENT ( #162, #242, ( #251 ) ) ;
#81 = FACE_OUTER_BOUND ( 'NONE', #111, .T. ) ;
#82 = PERSON_AND_ORGANIZATION ( #16, #72 ) ;
#83 = EDGE_CURVE ( 'NONE', #26, #231, #115, .T. ) ;
#84 = DIRECTION ( 'NONE',  ( -1.000000000000000000, 0.000000000000000000, 0.000000000000000000 ) ) ;
#85 = AXIS2_PLACEMENT_3D ( 'NONE', #17, #73, #95 ) ;
#86 = EDGE_LOOP ( 'NONE', ( #211, #8 ) ) ;
#87 = VERTEX_POINT ( 'NONE', #70 ) ;
#88 = ADVANCED_FACE ( 'NONE', ( #216 ), #38, .T. ) ;
#89 = EDGE_LOOP ( 'NONE', ( #45, #65 ) ) ;
#90 = DIRECTION ( 'NONE',  ( 1.000000000000000000, 0.000000000000000000, 0.000000000000000000 ) ) ;
#91 = ORIENTED_EDGE ( 'NONE', *, *, #41, .T. ) ;
#92 = ADVANCED_BREP_SHAPE_REPRESENTATION ( '7863', ( #60, #15 ), #212 ) ;
#93 = DIRECTION ( 'NONE',  ( -0.000000000000000000, -0.000000000000000000, -1.000000000000000000 ) ) ;
#94 = DATE_TIME_ROLE ( 'creation_date' ) ;
#95 = DIRECTION ( 'NONE',  ( -1.000000000000000000, 0.000000000000000000, 0.000000000000000000 ) ) ;
#96 = CALENDAR_DATE ( 2023, 13, 2 ) ;
#97 = DIRECTION ( 'NONE',  ( 0.000000000000000000, 0.000000000000000000, 1.000000000000000000 ) ) ;
#98 = CALENDAR_DATE ( 2023, 13, 2 ) ;
#99 = FACE_OUTER_BOUND ( 'NONE', #66, .T. ) ;
#100 = VECTOR ( 'NONE', #235, 1000.000000000000000 ) ;
#101 = COORDINATED_UNIVERSAL_TIME_OFFSET ( 1, 0, .AHEAD. ) ;
#102 = CC_DESIGN_APPROVAL ( #132, ( #193 ) ) ;
#103 = EDGE_CURVE ( 'NONE', #42, #231, #108, .T. ) ;
#104 = PERSON_AND_ORGANIZATION_ROLE ( 'design_owner' ) ;
#105 = FACE_OUTER_BOUND ( 'NONE', #229, .T. ) ;
#106 = CIRCLE ( 'NONE', #228, 16.00000000000000000 ) ;
#107 = CC_DESIGN_PERSON_AND_ORGANIZATION_ASSIGNMENT ( #34, #54, ( #209 ) ) ;
#108 = CIRCLE ( 'NONE', #253, 16.00000000000000000 ) ;
#109 = EDGE_LOOP ( 'NONE', ( #63, #233 ) ) ;
#110 = ORIENTED_EDGE ( 'NONE', *, *, #223, .F. ) ;
#111 = EDGE_LOOP ( 'NONE', ( #53, #230, #149, #44 ) ) ;
#112 = CARTESIAN_POINT ( 'NONE',  ( 0.000000000000000000, 0.000000000000000000, 10.00000000000000000 ) ) ;
#113 =( LENGTH_UNIT ( ) NAMED_UNIT ( * ) SI_UNIT ( .MILLI., .METRE. ) );
#114 = AXIS2_PLACEMENT_3D ( 'NONE', #199, #225, #35 ) ;
#115 = LINE ( 'NONE', #36, #39 ) ;
#116 = APPLICATION_PROTOCOL_DEFINITION ( 'international standard', 'config_control_design', 1994, #206 ) ;
#117 = FACE_BOUND ( 'NONE', #89, .T. ) ;
#118 = APPROVAL_STATUS ( 'not_yet_approved' ) ;
#119 = DIRECTION ( 'NONE',  ( 0.000000000000000000, 0.000000000000000000, 1.000000000000000000 ) ) ;
#120 = DIRECTION ( 'NONE',  ( 1.000000000000000000, 0.000000000000000000, 0.000000000000000000 ) ) ;
#121 = DIRECTION ( 'NONE',  ( 1.000000000000000000, 0.000000000000000000, 0.000000000000000000 ) ) ;
#122 =( NAMED_UNIT ( * ) PLANE_ANGLE_UNIT ( ) SI_UNIT ( $, .RADIAN. ) );
#123 = CC_DESIGN_APPROVAL ( #28, ( #251 ) ) ;
#124 = DIRECTION ( 'NONE',  ( 1.000000000000000000, 0.000000000000000000, -0.000000000000000000 ) ) ;
#125 = CIRCLE ( 'NONE', #213, 20.00000000000000000 ) ;
#126 = CARTESIAN_POINT ( 'NONE',  ( 20.00000000000000000, 2.449293598294706513E-15, 0.000000000000000000 ) ) ;
#127 = CC_DESIGN_PERSON_AND_ORGANIZATION_ASSIGNMENT ( #82, #239, ( #251 ) ) ;
#128 = CC_DESIGN_PERSON_AND_ORGANIZATION_ASSIGNMENT ( #14, #104, ( #7 ) ) ;
#129 = DIRECTION ( 'NONE',  ( 0.000000000000000000, 0.000000000000000000, 1.000000000000000000 ) ) ;
#130 = EDGE_LOOP ( 'NONE', ( #11, #195, #160, #171 ) ) ;
#131 = PERSON_AND_ORGANIZATION_ROLE ( 'creator' ) ;
#132 = APPROVAL ( #118, 'NEURÈENÝ' ) ;
#133 = CARTESIAN_POINT ( 'NONE',  ( 0.000000000000000000, 0.000000000000000000, 10.00000000000000000 ) ) ;
#134 = DIRECTION ( 'NONE',  ( 0.000000000000000000, 0.000000000000000000, 1.000000000000000000 ) ) ;
#135 = PERSON_AND_ORGANIZATION ( #16, #72 ) ;
#136 = FACE_OUTER_BOUND ( 'NONE', #190, .T. ) ;
#137 = CYLINDRICAL_SURFACE ( 'NONE', #85, 16.00000000000000000 ) ;
#138 = APPROVAL_STATUS ( 'not_yet_approved' ) ;
#139 = AXIS2_PLACEMENT_3D ( 'NONE', #236, #97, #215 ) ;
#140 = APPROVAL_ROLE ( '' ) ;
#141 = PLANE ( 'NONE',  #146 ) ;
#142 = CC_DESIGN_SECURITY_CLASSIFICATION ( #251, ( #209 ) ) ;
#143 = DIRECTION ( 'NONE',  ( 0.000000000000000000, 0.000000000000000000, 1.000000000000000000 ) ) ;
#144 = CLOSED_SHELL ( 'NONE', ( #165, #148, #88, #172, #145, #249, #205 ) ) ;
#145 = ADVANCED_FACE ( 'NONE', ( #203 ), #201, .F. ) ;
#146 = AXIS2_PLACEMENT_3D ( 'NONE', #227, #147, #124 ) ;
#147 = DIRECTION ( 'NONE',  ( 0.000000000000000000, 0.000000000000000000, 1.000000000000000000 ) ) ;
#148 = ADVANCED_FACE ( 'NONE', ( #99 ), #183, .T. ) ;
#149 = ORIENTED_EDGE ( 'NONE', *, *, #103, .T. ) ;
#150 = APPROVAL ( #138, 'NEURÈENÝ' ) ;
#151 = ORIENTED_EDGE ( 'NONE', *, *, #24, .F. ) ;
#152 = ORIENTED_EDGE ( 'NONE', *, *, #246, .T. ) ;
#153 = AXIS2_PLACEMENT_3D ( 'NONE', #57, #134, #31 ) ;
#154 = PERSON_AND_ORGANIZATION ( #16, #72 ) ;
#155 = DIRECTION ( 'NONE',  ( 0.000000000000000000, 0.000000000000000000, 1.000000000000000000 ) ) ;
#156 = DIRECTION ( 'NONE',  ( 0.000000000000000000, 0.000000000000000000, 1.000000000000000000 ) ) ;
#157 = APPROVAL_ROLE ( '' ) ;
#158 = ORIENTED_EDGE ( 'NONE', *, *, #41, .F. ) ;
#159 = PERSON_AND_ORGANIZATION_ROLE ( 'design_supplier' ) ;
#160 = ORIENTED_EDGE ( 'NONE', *, *, #24, .T. ) ;
#161 = VECTOR ( 'NONE', #56, 1000.000000000000000 ) ;
#162 = DATE_AND_TIME ( #2, #247 ) ;
#163 = CARTESIAN_POINT ( 'NONE',  ( -20.00000000000000000, 0.000000000000000000, 0.000000000000000000 ) ) ;
#164 = CARTESIAN_POINT ( 'NONE',  ( 0.000000000000000000, 0.000000000000000000, 200.0000000000000000 ) ) ;
#165 = ADVANCED_FACE ( 'NONE', ( #81 ), #137, .T. ) ;
#166 = VERTEX_POINT ( 'NONE', #163 ) ;
#167 = EDGE_CURVE ( 'NONE', #173, #26, #210, .T. ) ;
#168 = VERTEX_POINT ( 'NONE', #220 ) ;
#169 = AXIS2_PLACEMENT_3D ( 'NONE', #1, #156, #74 ) ;
#170 = CC_DESIGN_DATE_AND_TIME_ASSIGNMENT ( #48, #94, ( #193 ) ) ;
#171 = ORIENTED_EDGE ( 'NONE', *, *, #208, .T. ) ;
#172 = ADVANCED_FACE ( 'NONE', ( #117, #186 ), #141, .T. ) ;
#173 = VERTEX_POINT ( 'NONE', #59 ) ;
#174 = LOCAL_TIME ( 8, 47, 13.00000000000000000, #101 ) ;
#175 = CARTESIAN_POINT ( 'NONE',  ( 0.000000000000000000, 0.000000000000000000, 10.00000000000000000 ) ) ;
#176 = PERSON_AND_ORGANIZATION ( #16, #72 ) ;
#177 = CARTESIAN_POINT ( 'NONE',  ( -16.00000000000000000, 0.000000000000000000, 10.00000000000000000 ) ) ;
#178 = DIRECTION ( 'NONE',  ( 1.000000000000000000, 0.000000000000000000, 0.000000000000000000 ) ) ;
#179 = MECHANICAL_CONTEXT ( 'NONE', #206, 'mechanical' ) ;
#180 = DIRECTION ( 'NONE',  ( -0.000000000000000000, -0.000000000000000000, -1.000000000000000000 ) ) ;
#181 = APPROVAL_DATE_TIME ( #217, #150 ) ;
#182 = DIRECTION ( 'NONE',  ( 0.000000000000000000, 0.000000000000000000, 1.000000000000000000 ) ) ;
#183 = CYLINDRICAL_SURFACE ( 'NONE', #197, 20.00000000000000000 ) ;
#184 = APPROVAL_PERSON_ORGANIZATION ( #154, #28, #140 ) ;
#185 = DATE_AND_TIME ( #96, #174 ) ;
#186 = FACE_OUTER_BOUND ( 'NONE', #109, .T. ) ;
#187 = COORDINATED_UNIVERSAL_TIME_OFFSET ( 1, 0, .AHEAD. ) ;
#188 = DIRECTION ( 'NONE',  ( 1.000000000000000000, 0.000000000000000000, -0.000000000000000000 ) ) ;
#189 = CIRCLE ( 'NONE', #46, 20.00000000000000000 ) ;
#190 = EDGE_LOOP ( 'NONE', ( #110, #158, #10, #252 ) ) ;
#191 = AXIS2_PLACEMENT_3D ( 'NONE', #245, #47, #238 ) ;
#192 = ORIENTED_EDGE ( 'NONE', *, *, #30, .F. ) ;
#193 = PRODUCT_DEFINITION ( 'NEZNÁMÝ', '', #209, #77 ) ;
#194 = VERTEX_POINT ( 'NONE', #126 ) ;
#195 = ORIENTED_EDGE ( 'NONE', *, *, #43, .F. ) ;
#196 = APPROVAL_DATE_TIME ( #185, #132 ) ;
#197 = AXIS2_PLACEMENT_3D ( 'NONE', #3, #93, #255 ) ;
#198 = LOCAL_TIME ( 8, 47, 13.00000000000000000, #237 ) ;
#199 = CARTESIAN_POINT ( 'NONE',  ( 0.000000000000000000, 0.000000000000000000, 10.00000000000000000 ) ) ;
#200 = COORDINATED_UNIVERSAL_TIME_OFFSET ( 1, 0, .AHEAD. ) ;
#201 = PLANE ( 'NONE',  #139 ) ;
#202 = DIRECTION ( 'NONE',  ( -0.000000000000000000, -0.000000000000000000, -1.000000000000000000 ) ) ;
#203 = FACE_OUTER_BOUND ( 'NONE', #86, .T. ) ;
#204 = APPLICATION_PROTOCOL_DEFINITION ( 'international standard', 'config_control_design', 1994, #250 ) ;
#205 = ADVANCED_FACE ( 'NONE', ( #105 ), #23, .T. ) ;
#206 = APPLICATION_CONTEXT ( 'configuration controlled 3d designs of mechanical parts and assemblies' ) ;
#207 = CALENDAR_DATE ( 2023, 13, 2 ) ;
#208 = EDGE_CURVE ( 'NONE', #166, #194, #125, .T. ) ;
#209 = PRODUCT_DEFINITION_FORMATION_WITH_SPECIFIED_SOURCE ( 'LIBOVOLNÝ', '', #7, .NOT_KNOWN. ) ;
#210 = CIRCLE ( 'NONE', #169, 16.00000000000000000 ) ;
#211 = ORIENTED_EDGE ( 'NONE', *, *, #208, .F. ) ;
#212 =( GEOMETRIC_REPRESENTATION_CONTEXT ( 3 ) GLOBAL_UNCERTAINTY_ASSIGNED_CONTEXT ( ( #219 ) ) GLOBAL_UNIT_ASSIGNED_CONTEXT ( ( #113, #122, #18 ) ) REPRESENTATION_CONTEXT ( 'NONE', 'WORKASPACE' ) );
#213 = AXIS2_PLACEMENT_3D ( 'NONE', #76, #182, #90 ) ;
#214 = LOCAL_TIME ( 8, 47, 13.00000000000000000, #200 ) ;
#215 = DIRECTION ( 'NONE',  ( 1.000000000000000000, 0.000000000000000000, -0.000000000000000000 ) ) ;
#216 = FACE_OUTER_BOUND ( 'NONE', #130, .T. ) ;
#217 = DATE_AND_TIME ( #50, #198 ) ;
#218 = CIRCLE ( 'NONE', #27, 20.00000000000000000 ) ;
#219 = UNCERTAINTY_MEASURE_WITH_UNIT (LENGTH_MEASURE( 1.000000000000000082E-05 ), #113, 'distance_accuracy_value', 'NONE');
#220 = CARTESIAN_POINT ( 'NONE',  ( -20.00000000000000000, 0.000000000000000000, 10.00000000000000000 ) ) ;
#221 = CARTESIAN_POINT ( 'NONE',  ( 0.000000000000000000, 0.000000000000000000, 0.000000000000000000 ) ) ;
#222 = CARTESIAN_POINT ( 'NONE',  ( 16.00000000000000000, 1.959434878635765131E-15, 10.00000000000000000 ) ) ;
#223 = EDGE_CURVE ( 'NONE', #173, #42, #69, .T. ) ;
#224 = LINE ( 'NONE', #243, #161 ) ;
#225 = DIRECTION ( 'NONE',  ( -0.000000000000000000, -0.000000000000000000, -1.000000000000000000 ) ) ;
#226 = COORDINATED_UNIVERSAL_TIME_OFFSET ( 1, 0, .AHEAD. ) ;
#227 = CARTESIAN_POINT ( 'NONE',  ( 0.000000000000000000, 0.000000000000000000, 10.00000000000000000 ) ) ;
#228 = AXIS2_PLACEMENT_3D ( 'NONE', #175, #119, #178 ) ;
#229 = EDGE_LOOP ( 'NONE', ( #91, #20 ) ) ;
#230 = ORIENTED_EDGE ( 'NONE', *, *, #223, .T. ) ;
#231 = VERTEX_POINT ( 'NONE', #177 ) ;
#232 = CC_DESIGN_APPROVAL ( #150, ( #209 ) ) ;
#233 = ORIENTED_EDGE ( 'NONE', *, *, #30, .T. ) ;
#234 = APPROVAL_ROLE ( '' ) ;
#235 = DIRECTION ( 'NONE',  ( -0.000000000000000000, -0.000000000000000000, -1.000000000000000000 ) ) ;
#236 = CARTESIAN_POINT ( 'NONE',  ( 0.000000000000000000, 0.000000000000000000, 0.000000000000000000 ) ) ;
#237 = COORDINATED_UNIVERSAL_TIME_OFFSET ( 1, 0, .AHEAD. ) ;
#238 = DIRECTION ( 'NONE',  ( 1.000000000000000000, 0.000000000000000000, 0.000000000000000000 ) ) ;
#239 = PERSON_AND_ORGANIZATION_ROLE ( 'classification_officer' ) ;
#240 = EDGE_CURVE ( 'NONE', #194, #166, #189, .T. ) ;
#241 = CARTESIAN_POINT ( 'NONE',  ( -16.00000000000000000, 0.000000000000000000, 200.0000000000000000 ) ) ;
#242 = DATE_TIME_ROLE ( 'classification_date' ) ;
#243 = CARTESIAN_POINT ( 'NONE',  ( 20.00000000000000000, 2.449293598294706513E-15, 10.00000000000000000 ) ) ;
#244 = APPROVAL_DATE_TIME ( #22, #28 ) ;
#245 = CARTESIAN_POINT ( 'NONE',  ( 0.000000000000000000, 0.000000000000000000, 10.00000000000000000 ) ) ;
#246 = EDGE_CURVE ( 'NONE', #87, #194, #224, .T. ) ;
#247 = LOCAL_TIME ( 8, 47, 13.00000000000000000, #226 ) ;
#248 = CC_DESIGN_PERSON_AND_ORGANIZATION_ASSIGNMENT ( #135, #131, ( #193 ) ) ;
#249 = ADVANCED_FACE ( 'NONE', ( #136 ), #55, .T. ) ;
#250 = APPLICATION_CONTEXT ( 'configuration controlled 3d designs of mechanical parts and assemblies' ) ;
#251 = SECURITY_CLASSIFICATION ( '', '', #79 ) ;
#252 = ORIENTED_EDGE ( 'NONE', *, *, #68, .T. ) ;
#253 = AXIS2_PLACEMENT_3D ( 'NONE', #112, #155, #33 ) ;
#254 = DIRECTION ( 'NONE',  ( -0.000000000000000000, -0.000000000000000000, -1.000000000000000000 ) ) ;
#255 = DIRECTION ( 'NONE',  ( -1.000000000000000000, 0.000000000000000000, 0.000000000000000000 ) ) ;
ENDSEC;
END-ISO-10303-21;
