ISO-10303-21;
HEADER;
FILE_DESCRIPTION (( 'STEP AP203' ),
    '1' );
FILE_NAME ('bb4a.STEP',
    '2023-02-13T07:49:01',
    ( '' ),
    ( '' ),
    'SwSTEP 2.0',
    'SolidWorks 2019',
    '' );
FILE_SCHEMA (( 'CONFIG_CONTROL_DESIGN' ));
ENDSEC;

DATA;
#1 = AXIS2_PLACEMENT_3D ( 'NONE', #236, #231, #51 ) ;
#2 = CC_DESIGN_DATE_AND_TIME_ASSIGNMENT ( #152, #92, ( #188 ) ) ;
#3 =( NAMED_UNIT ( * ) SI_UNIT ( $, .STERADIAN. ) SOLID_ANGLE_UNIT ( ) );
#4 = VECTOR ( 'NONE', #155, 1000.000000000000000 ) ;
#5 = DIRECTION ( 'NONE',  ( 1.000000000000000000, 0.000000000000000000, 0.000000000000000000 ) ) ;
#6 = APPROVAL_STATUS ( 'not_yet_approved' ) ;
#7 = DIRECTION ( 'NONE',  ( 0.000000000000000000, 0.000000000000000000, 1.000000000000000000 ) ) ;
#8 = PERSON_AND_ORGANIZATION_ROLE ( 'creator' ) ;
#9 = VERTEX_POINT ( 'NONE', #81 ) ;
#10 = ADVANCED_FACE ( 'NONE', ( #228 ), #22, .T. ) ;
#11 = LOCAL_TIME ( 8, 49, 1.000000000000000000, #197 ) ;
#12 = ORIENTED_EDGE ( 'NONE', *, *, #34, .F. ) ;
#13 = ORIENTED_EDGE ( 'NONE', *, *, #34, .T. ) ;
#14 = CARTESIAN_POINT ( 'NONE',  ( 0.000000000000000000, 0.000000000000000000, 250.0000000000000000 ) ) ;
#15 = CYLINDRICAL_SURFACE ( 'NONE', #175, 13.00000000000000178 ) ;
#16 = DIRECTION ( 'NONE',  ( 1.000000000000000000, 0.000000000000000000, 0.000000000000000000 ) ) ;
#17 = DIRECTION ( 'NONE',  ( -1.000000000000000000, 0.000000000000000000, 0.000000000000000000 ) ) ;
#18 = CARTESIAN_POINT ( 'NONE',  ( -13.00000000000000178, 0.000000000000000000, 8.000000000000000000 ) ) ;
#19 = EDGE_CURVE ( 'NONE', #160, #148, #137, .T. ) ;
#20 = COORDINATED_UNIVERSAL_TIME_OFFSET ( 1, 0, .AHEAD. ) ;
#21 = APPROVAL_PERSON_ORGANIZATION ( #180, #42, #79 ) ;
#22 = CYLINDRICAL_SURFACE ( 'NONE', #114, 13.00000000000000178 ) ;
#23 = PERSON_AND_ORGANIZATION ( #103, #158 ) ;
#24 = APPROVAL_DATE_TIME ( #144, #42 ) ;
#25 = ORIENTED_EDGE ( 'NONE', *, *, #37, .T. ) ;
#26 = DIRECTION ( 'NONE',  ( 1.000000000000000000, 0.000000000000000000, 0.000000000000000000 ) ) ;
#27 = CARTESIAN_POINT ( 'NONE',  ( -13.00000000000000178, 0.000000000000000000, 8.000000000000000000 ) ) ;
#28 = AXIS2_PLACEMENT_3D ( 'NONE', #244, #200, #226 ) ;
#29 = DIRECTION ( 'NONE',  ( -0.000000000000000000, -0.000000000000000000, -1.000000000000000000 ) ) ;
#30 = DESIGN_CONTEXT ( 'detailed design', #195, 'design' ) ;
#31 = CARTESIAN_POINT ( 'NONE',  ( -10.00000000000000000, 0.000000000000000000, 250.0000000000000000 ) ) ;
#32 = ADVANCED_FACE ( 'NONE', ( #78 ), #241, .F. ) ;
#33 = CARTESIAN_POINT ( 'NONE',  ( 0.000000000000000000, 0.000000000000000000, 250.0000000000000000 ) ) ;
#34 = EDGE_CURVE ( 'NONE', #181, #243, #237, .T. ) ;
#35 = PERSON_AND_ORGANIZATION ( #103, #158 ) ;
#36 = DIRECTION ( 'NONE',  ( 0.000000000000000000, 0.000000000000000000, 1.000000000000000000 ) ) ;
#37 = EDGE_CURVE ( 'NONE', #148, #160, #211, .T. ) ;
#38 = LINE ( 'NONE', #95, #4 ) ;
#39 = CLOSED_SHELL ( 'NONE', ( #177, #10, #224, #239, #32, #91, #230 ) ) ;
#40 = CALENDAR_DATE ( 2023, 13, 2 ) ;
#41 = ORIENTED_EDGE ( 'NONE', *, *, #129, .T. ) ;
#42 = APPROVAL ( #6, 'NEURÈENÝ' ) ;
#43 = DATE_AND_TIME ( #240, #118 ) ;
#44 = ORIENTED_EDGE ( 'NONE', *, *, #60, .F. ) ;
#45 = ORIENTED_EDGE ( 'NONE', *, *, #134, .T. ) ;
#46 = VECTOR ( 'NONE', #29, 1000.000000000000000 ) ;
#47 = DIRECTION ( 'NONE',  ( 1.000000000000000000, 0.000000000000000000, 0.000000000000000000 ) ) ;
#48 = CC_DESIGN_PERSON_AND_ORGANIZATION_ASSIGNMENT ( #35, #117, ( #188 ) ) ;
#49 = ORIENTED_EDGE ( 'NONE', *, *, #37, .F. ) ;
#50 = CARTESIAN_POINT ( 'NONE',  ( 0.000000000000000000, 0.000000000000000000, 250.0000000000000000 ) ) ;
#51 = DIRECTION ( 'NONE',  ( -1.000000000000000000, 0.000000000000000000, 0.000000000000000000 ) ) ;
#52 = CARTESIAN_POINT ( 'NONE',  ( -13.00000000000000178, 0.000000000000000000, 0.000000000000000000 ) ) ;
#53 = DIRECTION ( 'NONE',  ( 1.000000000000000000, 0.000000000000000000, 0.000000000000000000 ) ) ;
#54 = CARTESIAN_POINT ( 'NONE',  ( 10.00000000000000000, 1.224646799147353256E-15, 250.0000000000000000 ) ) ;
#55 = CIRCLE ( 'NONE', #125, 13.00000000000000178 ) ;
#56 = CARTESIAN_POINT ( 'NONE',  ( 0.000000000000000000, 0.000000000000000000, 0.000000000000000000 ) ) ;
#57 = LOCAL_TIME ( 8, 49, 1.000000000000000000, #201 ) ;
#58 = APPROVAL_DATE_TIME ( #43, #77 ) ;
#59 = DIRECTION ( 'NONE',  ( -1.000000000000000000, 0.000000000000000000, 0.000000000000000000 ) ) ;
#60 = EDGE_CURVE ( 'NONE', #243, #181, #55, .T. ) ;
#61 = AXIS2_PLACEMENT_3D ( 'NONE', #229, #130, #87 ) ;
#62 = APPLICATION_PROTOCOL_DEFINITION ( 'international standard', 'config_control_design', 1994, #195 ) ;
#63 = EDGE_LOOP ( 'NONE', ( #247, #65, #184, #13 ) ) ;
#64 = CC_DESIGN_DATE_AND_TIME_ASSIGNMENT ( #121, #199, ( #119 ) ) ;
#65 = ORIENTED_EDGE ( 'NONE', *, *, #96, .F. ) ;
#66 = VERTEX_POINT ( 'NONE', #150 ) ;
#67 = PRODUCT_DEFINITION_FORMATION_WITH_SPECIFIED_SOURCE ( 'LIBOVOLNÝ', '', #128, .NOT_KNOWN. ) ;
#68 = FACE_OUTER_BOUND ( 'NONE', #104, .T. ) ;
#69 = CARTESIAN_POINT ( 'NONE',  ( -10.00000000000000000, 0.000000000000000000, 8.000000000000000000 ) ) ;
#70 = CC_DESIGN_APPROVAL ( #42, ( #67 ) ) ;
#71 = FACE_BOUND ( 'NONE', #159, .T. ) ;
#72 = DIRECTION ( 'NONE',  ( -1.000000000000000000, 0.000000000000000000, 0.000000000000000000 ) ) ;
#73 = PRODUCT_DEFINITION_SHAPE ( 'NONE', 'NONE',  #119 ) ;
#74 = AXIS2_PLACEMENT_3D ( 'NONE', #89, #170, #205 ) ;
#75 = CC_DESIGN_APPROVAL ( #77, ( #119 ) ) ;
#76 = COORDINATED_UNIVERSAL_TIME_OFFSET ( 1, 0, .AHEAD. ) ;
#77 = APPROVAL ( #99, 'NEURÈENÝ' ) ;
#78 = FACE_OUTER_BOUND ( 'NONE', #123, .T. ) ;
#79 = APPROVAL_ROLE ( '' ) ;
#80 = ORIENTED_EDGE ( 'NONE', *, *, #145, .F. ) ;
#81 = CARTESIAN_POINT ( 'NONE',  ( 10.00000000000000000, 1.224646799147353256E-15, 8.000000000000000000 ) ) ;
#82 = VERTEX_POINT ( 'NONE', #69 ) ;
#83 = ORIENTED_EDGE ( 'NONE', *, *, #145, .T. ) ;
#84 = MANIFOLD_SOLID_BREP ( 'Pøidat vysunutím3', #39 ) ;
#85 = VECTOR ( 'NONE', #173, 1000.000000000000000 ) ;
#86 = PLANE ( 'NONE',  #254 ) ;
#87 = DIRECTION ( 'NONE',  ( 1.000000000000000000, 0.000000000000000000, -0.000000000000000000 ) ) ;
#88 = CC_DESIGN_PERSON_AND_ORGANIZATION_ASSIGNMENT ( #223, #217, ( #119 ) ) ;
#89 = CARTESIAN_POINT ( 'NONE',  ( 0.000000000000000000, 0.000000000000000000, 8.000000000000000000 ) ) ;
#90 = FACE_OUTER_BOUND ( 'NONE', #63, .T. ) ;
#91 = ADVANCED_FACE ( 'NONE', ( #207 ), #206, .T. ) ;
#92 = DATE_TIME_ROLE ( 'classification_date' ) ;
#93 = LINE ( 'NONE', #250, #187 ) ;
#94 = APPROVAL_STATUS ( 'not_yet_approved' ) ;
#95 = CARTESIAN_POINT ( 'NONE',  ( 13.00000000000000178, 1.592040838891559293E-15, 8.000000000000000000 ) ) ;
#96 = EDGE_CURVE ( 'NONE', #146, #66, #166, .T. ) ;
#97 = LOCAL_TIME ( 8, 49, 1.000000000000000000, #20 ) ;
#98 = ORIENTED_EDGE ( 'NONE', *, *, #19, .F. ) ;
#99 = APPROVAL_STATUS ( 'not_yet_approved' ) ;
#100 = CARTESIAN_POINT ( 'NONE',  ( 0.000000000000000000, 0.000000000000000000, 0.000000000000000000 ) ) ;
#101 = CALENDAR_DATE ( 2023, 13, 2 ) ;
#102 = EDGE_LOOP ( 'NONE', ( #183, #49, #45, #41 ) ) ;
#103 = PERSON ( 'NEURÈENÝ', 'NEURÈENÝ', 'NEURÈENÝ', ('NEURÈENÝ'), ('NEURÈENÝ'), ('NEURÈENÝ') ) ;
#104 = EDGE_LOOP ( 'NONE', ( #106, #185 ) ) ;
#105 = APPROVAL_PERSON_ORGANIZATION ( #208, #210, #115 ) ;
#106 = ORIENTED_EDGE ( 'NONE', *, *, #96, .T. ) ;
#107 = CARTESIAN_POINT ( 'NONE',  ( 0.000000000000000000, 0.000000000000000000, 8.000000000000000000 ) ) ;
#108 = AXIS2_PLACEMENT_3D ( 'NONE', #100, #7, #47 ) ;
#109 = EDGE_CURVE ( 'NONE', #146, #181, #153, .T. ) ;
#110 = DIRECTION ( 'NONE',  ( 0.000000000000000000, 0.000000000000000000, 1.000000000000000000 ) ) ;
#111 = LINE ( 'NONE', #235, #85 ) ;
#112 = DIRECTION ( 'NONE',  ( 0.000000000000000000, 0.000000000000000000, 1.000000000000000000 ) ) ;
#113 = SECURITY_CLASSIFICATION_LEVEL ( 'unclassified' ) ;
#114 = AXIS2_PLACEMENT_3D ( 'NONE', #122, #163, #59 ) ;
#115 = APPROVAL_ROLE ( '' ) ;
#116 = MECHANICAL_CONTEXT ( 'NONE', #168, 'mechanical' ) ;
#117 = PERSON_AND_ORGANIZATION_ROLE ( 'classification_officer' ) ;
#118 = LOCAL_TIME ( 8, 49, 1.000000000000000000, #76 ) ;
#119 = PRODUCT_DEFINITION ( 'NEZNÁMÝ', '', #67, #30 ) ;
#120 = CIRCLE ( 'NONE', #147, 10.00000000000000000 ) ;
#121 = DATE_AND_TIME ( #40, #57 ) ;
#122 = CARTESIAN_POINT ( 'NONE',  ( 0.000000000000000000, 0.000000000000000000, 8.000000000000000000 ) ) ;
#123 = EDGE_LOOP ( 'NONE', ( #12, #44 ) ) ;
#124 = ORIENTED_EDGE ( 'NONE', *, *, #109, .F. ) ;
#125 = AXIS2_PLACEMENT_3D ( 'NONE', #249, #191, #26 ) ;
#126 = ORIENTED_EDGE ( 'NONE', *, *, #245, .T. ) ;
#127 = CARTESIAN_POINT ( 'NONE',  ( 0.000000000000000000, 0.000000000000000000, 250.0000000000000000 ) ) ;
#128 = PRODUCT ( 'bb4a', 'bb4a', '', ( #116 ) ) ;
#129 = EDGE_CURVE ( 'NONE', #82, #9, #198, .T. ) ;
#130 = DIRECTION ( 'NONE',  ( 0.000000000000000000, 0.000000000000000000, 1.000000000000000000 ) ) ;
#131 = AXIS2_PLACEMENT_3D ( 'NONE', #132, #110, #135 ) ;
#132 = CARTESIAN_POINT ( 'NONE',  ( 0.000000000000000000, 0.000000000000000000, 8.000000000000000000 ) ) ;
#133 = UNCERTAINTY_MEASURE_WITH_UNIT (LENGTH_MEASURE( 1.000000000000000082E-05 ), #157, 'distance_accuracy_value', 'NONE');
#134 = EDGE_CURVE ( 'NONE', #148, #82, #111, .T. ) ;
#135 = DIRECTION ( 'NONE',  ( 1.000000000000000000, 0.000000000000000000, 0.000000000000000000 ) ) ;
#136 = CARTESIAN_POINT ( 'NONE',  ( 0.000000000000000000, 0.000000000000000000, 8.000000000000000000 ) ) ;
#137 = CIRCLE ( 'NONE', #142, 10.00000000000000000 ) ;
#138 = FACE_OUTER_BOUND ( 'NONE', #246, .T. ) ;
#139 = CC_DESIGN_PERSON_AND_ORGANIZATION_ASSIGNMENT ( #190, #140, ( #128 ) ) ;
#140 = PERSON_AND_ORGANIZATION_ROLE ( 'design_owner' ) ;
#141 = EDGE_LOOP ( 'NONE', ( #98, #219, #83, #202 ) ) ;
#142 = AXIS2_PLACEMENT_3D ( 'NONE', #127, #179, #5 ) ;
#143 = APPROVAL_PERSON_ORGANIZATION ( #23, #77, #221 ) ;
#144 = DATE_AND_TIME ( #101, #213 ) ;
#145 = EDGE_CURVE ( 'NONE', #9, #82, #120, .T. ) ;
#146 = VERTEX_POINT ( 'NONE', #18 ) ;
#147 = AXIS2_PLACEMENT_3D ( 'NONE', #136, #112, #209 ) ;
#148 = VERTEX_POINT ( 'NONE', #31 ) ;
#149 = PLANE ( 'NONE',  #61 ) ;
#150 = CARTESIAN_POINT ( 'NONE',  ( 13.00000000000000178, 1.592040838891559293E-15, 8.000000000000000000 ) ) ;
#151 = FACE_OUTER_BOUND ( 'NONE', #141, .T. ) ;
#152 = DATE_AND_TIME ( #156, #11 ) ;
#153 = LINE ( 'NONE', #27, #46 ) ;
#154 = EDGE_CURVE ( 'NONE', #160, #9, #93, .T. ) ;
#155 = DIRECTION ( 'NONE',  ( -0.000000000000000000, -0.000000000000000000, -1.000000000000000000 ) ) ;
#156 = CALENDAR_DATE ( 2023, 13, 2 ) ;
#157 =( LENGTH_UNIT ( ) NAMED_UNIT ( * ) SI_UNIT ( .MILLI., .METRE. ) );
#158 = ORGANIZATION ( 'NEURÈENÝ', 'NEURÈENÝ', '' ) ;
#159 = EDGE_LOOP ( 'NONE', ( #203, #80 ) ) ;
#160 = VERTEX_POINT ( 'NONE', #54 ) ;
#161 = AXIS2_PLACEMENT_3D ( 'NONE', #107, #189, #16 ) ;
#162 = PERSON_AND_ORGANIZATION ( #103, #158 ) ;
#163 = DIRECTION ( 'NONE',  ( -0.000000000000000000, -0.000000000000000000, -1.000000000000000000 ) ) ;
#164 = ORIENTED_EDGE ( 'NONE', *, *, #174, .F. ) ;
#165 = PRODUCT_RELATED_PRODUCT_CATEGORY ( 'detail', '', ( #128 ) ) ;
#166 = CIRCLE ( 'NONE', #131, 13.00000000000000178 ) ;
#167 = DIRECTION ( 'NONE',  ( 0.000000000000000000, 0.000000000000000000, 1.000000000000000000 ) ) ;
#168 = APPLICATION_CONTEXT ( 'configuration controlled 3d designs of mechanical parts and assemblies' ) ;
#169 = CARTESIAN_POINT ( 'NONE',  ( 13.00000000000000178, 1.592040838891559293E-15, 0.000000000000000000 ) ) ;
#170 = DIRECTION ( 'NONE',  ( 0.000000000000000000, 0.000000000000000000, 1.000000000000000000 ) ) ;
#171 = DIRECTION ( 'NONE',  ( -0.000000000000000000, -0.000000000000000000, -1.000000000000000000 ) ) ;
#172 =( GEOMETRIC_REPRESENTATION_CONTEXT ( 3 ) GLOBAL_UNCERTAINTY_ASSIGNED_CONTEXT ( ( #133 ) ) GLOBAL_UNIT_ASSIGNED_CONTEXT ( ( #157, #212, #3 ) ) REPRESENTATION_CONTEXT ( 'NONE', 'WORKASPACE' ) );
#173 = DIRECTION ( 'NONE',  ( -0.000000000000000000, -0.000000000000000000, -1.000000000000000000 ) ) ;
#174 = EDGE_CURVE ( 'NONE', #66, #146, #192, .T. ) ;
#175 = AXIS2_PLACEMENT_3D ( 'NONE', #252, #171, #72 ) ;
#176 = DATE_AND_TIME ( #253, #97 ) ;
#177 = ADVANCED_FACE ( 'NONE', ( #151 ), #186, .T. ) ;
#178 = AXIS2_PLACEMENT_3D ( 'NONE', #33, #193, #53 ) ;
#179 = DIRECTION ( 'NONE',  ( 0.000000000000000000, 0.000000000000000000, 1.000000000000000000 ) ) ;
#180 = PERSON_AND_ORGANIZATION ( #103, #158 ) ;
#181 = VERTEX_POINT ( 'NONE', #52 ) ;
#182 = PERSON_AND_ORGANIZATION ( #103, #158 ) ;
#183 = ORIENTED_EDGE ( 'NONE', *, *, #154, .F. ) ;
#184 = ORIENTED_EDGE ( 'NONE', *, *, #109, .T. ) ;
#185 = ORIENTED_EDGE ( 'NONE', *, *, #174, .T. ) ;
#186 = CYLINDRICAL_SURFACE ( 'NONE', #218, 10.00000000000000000 ) ;
#187 = VECTOR ( 'NONE', #232, 1000.000000000000000 ) ;
#188 = SECURITY_CLASSIFICATION ( '', '', #113 ) ;
#189 = DIRECTION ( 'NONE',  ( 0.000000000000000000, 0.000000000000000000, 1.000000000000000000 ) ) ;
#190 = PERSON_AND_ORGANIZATION ( #103, #158 ) ;
#191 = DIRECTION ( 'NONE',  ( 0.000000000000000000, 0.000000000000000000, 1.000000000000000000 ) ) ;
#192 = CIRCLE ( 'NONE', #74, 13.00000000000000178 ) ;
#193 = DIRECTION ( 'NONE',  ( 0.000000000000000000, 0.000000000000000000, 1.000000000000000000 ) ) ;
#194 = APPLICATION_PROTOCOL_DEFINITION ( 'international standard', 'config_control_design', 1994, #168 ) ;
#195 = APPLICATION_CONTEXT ( 'configuration controlled 3d designs of mechanical parts and assemblies' ) ;
#196 = APPROVAL_DATE_TIME ( #176, #210 ) ;
#197 = COORDINATED_UNIVERSAL_TIME_OFFSET ( 1, 0, .AHEAD. ) ;
#198 = CIRCLE ( 'NONE', #161, 10.00000000000000000 ) ;
#199 = DATE_TIME_ROLE ( 'creation_date' ) ;
#200 = DIRECTION ( 'NONE',  ( 0.000000000000000000, 0.000000000000000000, 1.000000000000000000 ) ) ;
#201 = COORDINATED_UNIVERSAL_TIME_OFFSET ( 1, 0, .AHEAD. ) ;
#202 = ORIENTED_EDGE ( 'NONE', *, *, #134, .F. ) ;
#203 = ORIENTED_EDGE ( 'NONE', *, *, #129, .F. ) ;
#204 = ORIENTED_EDGE ( 'NONE', *, *, #19, .T. ) ;
#205 = DIRECTION ( 'NONE',  ( 1.000000000000000000, 0.000000000000000000, 0.000000000000000000 ) ) ;
#206 = CYLINDRICAL_SURFACE ( 'NONE', #1, 10.00000000000000000 ) ;
#207 = FACE_OUTER_BOUND ( 'NONE', #102, .T. ) ;
#208 = PERSON_AND_ORGANIZATION ( #103, #158 ) ;
#209 = DIRECTION ( 'NONE',  ( 1.000000000000000000, 0.000000000000000000, 0.000000000000000000 ) ) ;
#210 = APPROVAL ( #94, 'NEURÈENÝ' ) ;
#211 = CIRCLE ( 'NONE', #178, 10.00000000000000000 ) ;
#212 =( NAMED_UNIT ( * ) PLANE_ANGLE_UNIT ( ) SI_UNIT ( $, .RADIAN. ) );
#213 = LOCAL_TIME ( 8, 49, 1.000000000000000000, #242 ) ;
#214 = DIRECTION ( 'NONE',  ( 1.000000000000000000, 0.000000000000000000, 0.000000000000000000 ) ) ;
#215 = SHAPE_DEFINITION_REPRESENTATION ( #73, #238 ) ;
#216 = CC_DESIGN_APPROVAL ( #210, ( #188 ) ) ;
#217 = PERSON_AND_ORGANIZATION_ROLE ( 'creator' ) ;
#218 = AXIS2_PLACEMENT_3D ( 'NONE', #50, #251, #17 ) ;
#219 = ORIENTED_EDGE ( 'NONE', *, *, #154, .T. ) ;
#220 = AXIS2_PLACEMENT_3D ( 'NONE', #56, #36, #214 ) ;
#221 = APPROVAL_ROLE ( '' ) ;
#222 = ORIENTED_EDGE ( 'NONE', *, *, #60, .T. ) ;
#223 = PERSON_AND_ORGANIZATION ( #103, #158 ) ;
#224 = ADVANCED_FACE ( 'NONE', ( #90 ), #15, .T. ) ;
#225 = EDGE_LOOP ( 'NONE', ( #164, #126, #222, #124 ) ) ;
#226 = DIRECTION ( 'NONE',  ( 1.000000000000000000, 0.000000000000000000, -0.000000000000000000 ) ) ;
#227 = CC_DESIGN_SECURITY_CLASSIFICATION ( #188, ( #67 ) ) ;
#228 = FACE_OUTER_BOUND ( 'NONE', #225, .T. ) ;
#229 = CARTESIAN_POINT ( 'NONE',  ( 0.000000000000000000, 0.000000000000000000, 8.000000000000000000 ) ) ;
#230 = ADVANCED_FACE ( 'NONE', ( #138 ), #86, .T. ) ;
#231 = DIRECTION ( 'NONE',  ( -0.000000000000000000, -0.000000000000000000, -1.000000000000000000 ) ) ;
#232 = DIRECTION ( 'NONE',  ( -0.000000000000000000, -0.000000000000000000, -1.000000000000000000 ) ) ;
#233 = PERSON_AND_ORGANIZATION_ROLE ( 'design_supplier' ) ;
#234 = CC_DESIGN_PERSON_AND_ORGANIZATION_ASSIGNMENT ( #162, #233, ( #67 ) ) ;
#235 = CARTESIAN_POINT ( 'NONE',  ( -10.00000000000000000, 0.000000000000000000, 250.0000000000000000 ) ) ;
#236 = CARTESIAN_POINT ( 'NONE',  ( 0.000000000000000000, 0.000000000000000000, 250.0000000000000000 ) ) ;
#237 = CIRCLE ( 'NONE', #108, 13.00000000000000178 ) ;
#238 = ADVANCED_BREP_SHAPE_REPRESENTATION ( 'bb4a', ( #84, #220 ), #172 ) ;
#239 = ADVANCED_FACE ( 'NONE', ( #71, #68 ), #149, .T. ) ;
#240 = CALENDAR_DATE ( 2023, 13, 2 ) ;
#241 = PLANE ( 'NONE',  #28 ) ;
#242 = COORDINATED_UNIVERSAL_TIME_OFFSET ( 1, 0, .AHEAD. ) ;
#243 = VERTEX_POINT ( 'NONE', #169 ) ;
#244 = CARTESIAN_POINT ( 'NONE',  ( 0.000000000000000000, 0.000000000000000000, 0.000000000000000000 ) ) ;
#245 = EDGE_CURVE ( 'NONE', #66, #243, #38, .T. ) ;
#246 = EDGE_LOOP ( 'NONE', ( #25, #204 ) ) ;
#247 = ORIENTED_EDGE ( 'NONE', *, *, #245, .F. ) ;
#248 = DIRECTION ( 'NONE',  ( 1.000000000000000000, 0.000000000000000000, -0.000000000000000000 ) ) ;
#249 = CARTESIAN_POINT ( 'NONE',  ( 0.000000000000000000, 0.000000000000000000, 0.000000000000000000 ) ) ;
#250 = CARTESIAN_POINT ( 'NONE',  ( 10.00000000000000000, 1.224646799147353256E-15, 250.0000000000000000 ) ) ;
#251 = DIRECTION ( 'NONE',  ( -0.000000000000000000, -0.000000000000000000, -1.000000000000000000 ) ) ;
#252 = CARTESIAN_POINT ( 'NONE',  ( 0.000000000000000000, 0.000000000000000000, 8.000000000000000000 ) ) ;
#253 = CALENDAR_DATE ( 2023, 13, 2 ) ;
#254 = AXIS2_PLACEMENT_3D ( 'NONE', #14, #167, #248 ) ;
#255 = CC_DESIGN_PERSON_AND_ORGANIZATION_ASSIGNMENT ( #182, #8, ( #67 ) ) ;
ENDSEC;
END-ISO-10303-21;
