ISO-10303-21;
HEADER;
FILE_DESCRIPTION (( 'STEP AP203' ),
    '1' );
FILE_NAME ('2ae0.STEP',
    '2023-02-13T07:46:32',
    ( '' ),
    ( '' ),
    'SwSTEP 2.0',
    'SolidWorks 2019',
    '' );
FILE_SCHEMA (( 'CONFIG_CONTROL_DESIGN' ));
ENDSEC;

DATA;
#1 = ORIENTED_EDGE ( 'NONE', *, *, #173, .T. ) ;
#2 = ORIENTED_EDGE ( 'NONE', *, *, #255, .T. ) ;
#3 = DATE_AND_TIME ( #217, #177 ) ;
#4 = CLOSED_SHELL ( 'NONE', ( #148, #120, #224, #92, #209, #131, #23 ) ) ;
#5 = EDGE_LOOP ( 'NONE', ( #145, #31 ) ) ;
#6 = APPROVAL ( #199, 'NEURÈENÝ' ) ;
#7 = PRODUCT_RELATED_PRODUCT_CATEGORY ( 'detail', '', ( #134 ) ) ;
#8 = ORIENTED_EDGE ( 'NONE', *, *, #66, .T. ) ;
#9 = CARTESIAN_POINT ( 'NONE',  ( 0.000000000000000000, 0.000000000000000000, 400.0000000000000000 ) ) ;
#10 = APPROVAL_ROLE ( '' ) ;
#11 = CC_DESIGN_PERSON_AND_ORGANIZATION_ASSIGNMENT ( #48, #16, ( #54 ) ) ;
#12 = EDGE_LOOP ( 'NONE', ( #214, #188, #238, #223 ) ) ;
#13 = SECURITY_CLASSIFICATION_LEVEL ( 'unclassified' ) ;
#14 = CARTESIAN_POINT ( 'NONE',  ( 16.00000000000000000, 1.959434878635765131E-15, 10.00000000000000000 ) ) ;
#15 = VERTEX_POINT ( 'NONE', #151 ) ;
#16 = PERSON_AND_ORGANIZATION_ROLE ( 'design_supplier' ) ;
#17 = CARTESIAN_POINT ( 'NONE',  ( 0.000000000000000000, 0.000000000000000000, 0.000000000000000000 ) ) ;
#18 = AXIS2_PLACEMENT_3D ( 'NONE', #76, #78, #111 ) ;
#19 = LOCAL_TIME ( 8, 46, 32.00000000000000000, #220 ) ;
#20 = LINE ( 'NONE', #90, #37 ) ;
#21 = VERTEX_POINT ( 'NONE', #154 ) ;
#22 = EDGE_LOOP ( 'NONE', ( #110, #202, #1, #102 ) ) ;
#23 = ADVANCED_FACE ( 'NONE', ( #218 ), #58, .T. ) ;
#24 = CARTESIAN_POINT ( 'NONE',  ( 16.00000000000000000, 1.959434878635765131E-15, 400.0000000000000000 ) ) ;
#25 = CC_DESIGN_SECURITY_CLASSIFICATION ( #248, ( #54 ) ) ;
#26 = PERSON_AND_ORGANIZATION ( #64, #236 ) ;
#27 = CYLINDRICAL_SURFACE ( 'NONE', #176, 16.00000000000000000 ) ;
#28 = DIRECTION ( 'NONE',  ( -1.000000000000000000, 0.000000000000000000, 0.000000000000000000 ) ) ;
#29 = EDGE_LOOP ( 'NONE', ( #85, #245 ) ) ;
#30 = LINE ( 'NONE', #207, #149 ) ;
#31 = ORIENTED_EDGE ( 'NONE', *, *, #173, .F. ) ;
#32 = LINE ( 'NONE', #206, #215 ) ;
#33 = CC_DESIGN_PERSON_AND_ORGANIZATION_ASSIGNMENT ( #51, #228, ( #54 ) ) ;
#34 = CARTESIAN_POINT ( 'NONE',  ( 20.00000000000000000, 2.449293598294706513E-15, 0.000000000000000000 ) ) ;
#35 = ORIENTED_EDGE ( 'NONE', *, *, #77, .T. ) ;
#36 = DIRECTION ( 'NONE',  ( 0.000000000000000000, 0.000000000000000000, 1.000000000000000000 ) ) ;
#37 = VECTOR ( 'NONE', #138, 1000.000000000000000 ) ;
#38 = VERTEX_POINT ( 'NONE', #24 ) ;
#39 = VECTOR ( 'NONE', #75, 1000.000000000000000 ) ;
#40 = DIRECTION ( 'NONE',  ( 1.000000000000000000, 0.000000000000000000, 0.000000000000000000 ) ) ;
#41 = ORIENTED_EDGE ( 'NONE', *, *, #241, .T. ) ;
#42 = DIRECTION ( 'NONE',  ( 0.000000000000000000, 0.000000000000000000, 1.000000000000000000 ) ) ;
#43 = COORDINATED_UNIVERSAL_TIME_OFFSET ( 1, 0, .AHEAD. ) ;
#44 = VERTEX_POINT ( 'NONE', #133 ) ;
#45 = AXIS2_PLACEMENT_3D ( 'NONE', #84, #250, #144 ) ;
#46 = CARTESIAN_POINT ( 'NONE',  ( 0.000000000000000000, 0.000000000000000000, 400.0000000000000000 ) ) ;
#47 = DIRECTION ( 'NONE',  ( -0.000000000000000000, -0.000000000000000000, -1.000000000000000000 ) ) ;
#48 = PERSON_AND_ORGANIZATION ( #64, #236 ) ;
#49 = PRODUCT_DEFINITION ( 'NEZNÁMÝ', '', #54, #73 ) ;
#50 = ORIENTED_EDGE ( 'NONE', *, *, #166, .F. ) ;
#51 = PERSON_AND_ORGANIZATION ( #64, #236 ) ;
#52 = DIRECTION ( 'NONE',  ( 1.000000000000000000, 0.000000000000000000, 0.000000000000000000 ) ) ;
#53 = CIRCLE ( 'NONE', #226, 16.00000000000000000 ) ;
#54 = PRODUCT_DEFINITION_FORMATION_WITH_SPECIFIED_SOURCE ( 'LIBOVOLNÝ', '', #134, .NOT_KNOWN. ) ;
#55 = CYLINDRICAL_SURFACE ( 'NONE', #93, 16.00000000000000000 ) ;
#56 = APPLICATION_CONTEXT ( 'configuration controlled 3d designs of mechanical parts and assemblies' ) ;
#57 = FACE_BOUND ( 'NONE', #5, .T. ) ;
#58 = PLANE ( 'NONE',  #18 ) ;
#59 = EDGE_CURVE ( 'NONE', #21, #249, #208, .T. ) ;
#60 = CARTESIAN_POINT ( 'NONE',  ( 0.000000000000000000, 0.000000000000000000, 400.0000000000000000 ) ) ;
#61 = CALENDAR_DATE ( 2023, 13, 2 ) ;
#62 = CIRCLE ( 'NONE', #72, 20.00000000000000000 ) ;
#63 = CYLINDRICAL_SURFACE ( 'NONE', #107, 20.00000000000000000 ) ;
#64 = PERSON ( 'NEURÈENÝ', 'NEURÈENÝ', 'NEURÈENÝ', ('NEURÈENÝ'), ('NEURÈENÝ'), ('NEURÈENÝ') ) ;
#65 = CIRCLE ( 'NONE', #137, 16.00000000000000000 ) ;
#66 = EDGE_CURVE ( 'NONE', #147, #38, #247, .T. ) ;
#67 = CARTESIAN_POINT ( 'NONE',  ( 0.000000000000000000, 0.000000000000000000, 0.000000000000000000 ) ) ;
#68 = DIRECTION ( 'NONE',  ( 0.000000000000000000, 0.000000000000000000, 1.000000000000000000 ) ) ;
#69 =( NAMED_UNIT ( * ) SI_UNIT ( $, .STERADIAN. ) SOLID_ANGLE_UNIT ( ) );
#70 = EDGE_CURVE ( 'NONE', #94, #15, #87, .T. ) ;
#71 = DIRECTION ( 'NONE',  ( 1.000000000000000000, 0.000000000000000000, 0.000000000000000000 ) ) ;
#72 = AXIS2_PLACEMENT_3D ( 'NONE', #161, #99, #244 ) ;
#73 = DESIGN_CONTEXT ( 'detailed design', #56, 'design' ) ;
#74 = APPROVAL ( #155, 'NEURÈENÝ' ) ;
#75 = DIRECTION ( 'NONE',  ( -0.000000000000000000, -0.000000000000000000, -1.000000000000000000 ) ) ;
#76 = CARTESIAN_POINT ( 'NONE',  ( 0.000000000000000000, 0.000000000000000000, 400.0000000000000000 ) ) ;
#77 = EDGE_CURVE ( 'NONE', #38, #147, #53, .T. ) ;
#78 = DIRECTION ( 'NONE',  ( 0.000000000000000000, 0.000000000000000000, 1.000000000000000000 ) ) ;
#79 = PRODUCT_DEFINITION_SHAPE ( 'NONE', 'NONE',  #49 ) ;
#80 = DATE_TIME_ROLE ( 'creation_date' ) ;
#81 = DATE_AND_TIME ( #186, #150 ) ;
#82 = LOCAL_TIME ( 8, 46, 32.00000000000000000, #43 ) ;
#83 = CARTESIAN_POINT ( 'NONE',  ( 0.000000000000000000, 0.000000000000000000, 0.000000000000000000 ) ) ;
#84 = CARTESIAN_POINT ( 'NONE',  ( 0.000000000000000000, 0.000000000000000000, 10.00000000000000000 ) ) ;
#85 = ORIENTED_EDGE ( 'NONE', *, *, #70, .T. ) ;
#86 = PERSON_AND_ORGANIZATION ( #64, #236 ) ;
#87 = CIRCLE ( 'NONE', #153, 20.00000000000000000 ) ;
#88 = DATE_AND_TIME ( #187, #124 ) ;
#89 = DIRECTION ( 'NONE',  ( 0.000000000000000000, 0.000000000000000000, 1.000000000000000000 ) ) ;
#90 = CARTESIAN_POINT ( 'NONE',  ( 16.00000000000000000, 1.959434878635765131E-15, 400.0000000000000000 ) ) ;
#91 = AXIS2_PLACEMENT_3D ( 'NONE', #130, #152, #211 ) ;
#92 = ADVANCED_FACE ( 'NONE', ( #57, #95 ), #113, .T. ) ;
#93 = AXIS2_PLACEMENT_3D ( 'NONE', #46, #229, #28 ) ;
#94 = VERTEX_POINT ( 'NONE', #232 ) ;
#95 = FACE_OUTER_BOUND ( 'NONE', #29, .T. ) ;
#96 = CC_DESIGN_APPROVAL ( #74, ( #54 ) ) ;
#97 = APPROVAL_DATE_TIME ( #3, #6 ) ;
#98 = DATE_AND_TIME ( #139, #82 ) ;
#99 = DIRECTION ( 'NONE',  ( 0.000000000000000000, 0.000000000000000000, 1.000000000000000000 ) ) ;
#100 = EDGE_CURVE ( 'NONE', #38, #249, #20, .T. ) ;
#101 = CARTESIAN_POINT ( 'NONE',  ( -16.00000000000000000, 0.000000000000000000, 400.0000000000000000 ) ) ;
#102 = ORIENTED_EDGE ( 'NONE', *, *, #255, .F. ) ;
#103 = DIRECTION ( 'NONE',  ( 1.000000000000000000, 0.000000000000000000, 0.000000000000000000 ) ) ;
#104 = ORIENTED_EDGE ( 'NONE', *, *, #166, .T. ) ;
#105 =( LENGTH_UNIT ( ) NAMED_UNIT ( * ) SI_UNIT ( .MILLI., .METRE. ) );
#106 = MANIFOLD_SOLID_BREP ( 'Pøidat vysunutím3', #4 ) ;
#107 = AXIS2_PLACEMENT_3D ( 'NONE', #140, #47, #198 ) ;
#108 = EDGE_LOOP ( 'NONE', ( #141, #196, #2, #185 ) ) ;
#109 = COORDINATED_UNIVERSAL_TIME_OFFSET ( 1, 0, .AHEAD. ) ;
#110 = ORIENTED_EDGE ( 'NONE', *, *, #77, .F. ) ;
#111 = DIRECTION ( 'NONE',  ( 1.000000000000000000, 0.000000000000000000, -0.000000000000000000 ) ) ;
#112 = EDGE_CURVE ( 'NONE', #15, #157, #168, .T. ) ;
#113 = PLANE ( 'NONE',  #143 ) ;
#114 = DIRECTION ( 'NONE',  ( 1.000000000000000000, 0.000000000000000000, 0.000000000000000000 ) ) ;
#115 = PERSON_AND_ORGANIZATION ( #64, #236 ) ;
#116 = CC_DESIGN_DATE_AND_TIME_ASSIGNMENT ( #219, #80, ( #49 ) ) ;
#117 = DIRECTION ( 'NONE',  ( -1.000000000000000000, 0.000000000000000000, 0.000000000000000000 ) ) ;
#118 = APPLICATION_PROTOCOL_DEFINITION ( 'international standard', 'config_control_design', 1994, #56 ) ;
#119 = FACE_OUTER_BOUND ( 'NONE', #12, .T. ) ;
#120 = ADVANCED_FACE ( 'NONE', ( #119 ), #63, .T. ) ;
#121 = APPROVAL ( #159, 'NEURÈENÝ' ) ;
#122 = DIRECTION ( 'NONE',  ( 0.000000000000000000, 0.000000000000000000, 1.000000000000000000 ) ) ;
#123 = AXIS2_PLACEMENT_3D ( 'NONE', #83, #165, #71 ) ;
#124 = LOCAL_TIME ( 8, 46, 32.00000000000000000, #109 ) ;
#125 = FACE_OUTER_BOUND ( 'NONE', #204, .T. ) ;
#126 = FACE_OUTER_BOUND ( 'NONE', #108, .T. ) ;
#127 = PERSON_AND_ORGANIZATION_ROLE ( 'classification_officer' ) ;
#128 = APPROVAL_ROLE ( '' ) ;
#129 = APPLICATION_PROTOCOL_DEFINITION ( 'international standard', 'config_control_design', 1994, #158 ) ;
#130 = CARTESIAN_POINT ( 'NONE',  ( 0.000000000000000000, 0.000000000000000000, 10.00000000000000000 ) ) ;
#131 = ADVANCED_FACE ( 'NONE', ( #126 ), #27, .T. ) ;
#132 = APPROVAL_PERSON_ORGANIZATION ( #115, #74, #10 ) ;
#133 = CARTESIAN_POINT ( 'NONE',  ( -20.00000000000000000, 0.000000000000000000, 0.000000000000000000 ) ) ;
#134 = PRODUCT ( '2ae0', '2ae0', '', ( #222 ) ) ;
#135 = DIRECTION ( 'NONE',  ( 0.000000000000000000, 0.000000000000000000, 1.000000000000000000 ) ) ;
#136 = APPROVAL_DATE_TIME ( #98, #74 ) ;
#137 = AXIS2_PLACEMENT_3D ( 'NONE', #142, #89, #52 ) ;
#138 = DIRECTION ( 'NONE',  ( -0.000000000000000000, -0.000000000000000000, -1.000000000000000000 ) ) ;
#139 = CALENDAR_DATE ( 2023, 13, 2 ) ;
#140 = CARTESIAN_POINT ( 'NONE',  ( 0.000000000000000000, 0.000000000000000000, 10.00000000000000000 ) ) ;
#141 = ORIENTED_EDGE ( 'NONE', *, *, #100, .F. ) ;
#142 = CARTESIAN_POINT ( 'NONE',  ( 0.000000000000000000, 0.000000000000000000, 10.00000000000000000 ) ) ;
#143 = AXIS2_PLACEMENT_3D ( 'NONE', #195, #36, #235 ) ;
#144 = DIRECTION ( 'NONE',  ( -1.000000000000000000, 0.000000000000000000, 0.000000000000000000 ) ) ;
#145 = ORIENTED_EDGE ( 'NONE', *, *, #59, .F. ) ;
#146 = FACE_OUTER_BOUND ( 'NONE', #22, .T. ) ;
#147 = VERTEX_POINT ( 'NONE', #101 ) ;
#148 = ADVANCED_FACE ( 'NONE', ( #146 ), #55, .T. ) ;
#149 = VECTOR ( 'NONE', #252, 1000.000000000000000 ) ;
#150 = LOCAL_TIME ( 8, 46, 32.00000000000000000, #242 ) ;
#151 = CARTESIAN_POINT ( 'NONE',  ( 20.00000000000000000, 2.449293598294706513E-15, 10.00000000000000000 ) ) ;
#152 = DIRECTION ( 'NONE',  ( 0.000000000000000000, 0.000000000000000000, 1.000000000000000000 ) ) ;
#153 = AXIS2_PLACEMENT_3D ( 'NONE', #170, #171, #234 ) ;
#154 = CARTESIAN_POINT ( 'NONE',  ( -16.00000000000000000, 0.000000000000000000, 10.00000000000000000 ) ) ;
#155 = APPROVAL_STATUS ( 'not_yet_approved' ) ;
#156 = COORDINATED_UNIVERSAL_TIME_OFFSET ( 1, 0, .AHEAD. ) ;
#157 = VERTEX_POINT ( 'NONE', #34 ) ;
#158 = APPLICATION_CONTEXT ( 'configuration controlled 3d designs of mechanical parts and assemblies' ) ;
#159 = APPROVAL_STATUS ( 'not_yet_approved' ) ;
#160 = EDGE_LOOP ( 'NONE', ( #227, #182, #41, #104 ) ) ;
#161 = CARTESIAN_POINT ( 'NONE',  ( 0.000000000000000000, 0.000000000000000000, 0.000000000000000000 ) ) ;
#162 = AXIS2_PLACEMENT_3D ( 'NONE', #67, #122, #203 ) ;
#163 = APPROVAL_DATE_TIME ( #81, #121 ) ;
#164 = CC_DESIGN_PERSON_AND_ORGANIZATION_ASSIGNMENT ( #26, #239, ( #49 ) ) ;
#165 = DIRECTION ( 'NONE',  ( 0.000000000000000000, 0.000000000000000000, 1.000000000000000000 ) ) ;
#166 = EDGE_CURVE ( 'NONE', #44, #157, #212, .T. ) ;
#167 = UNCERTAINTY_MEASURE_WITH_UNIT (LENGTH_MEASURE( 1.000000000000000082E-05 ), #105, 'distance_accuracy_value', 'NONE');
#168 = LINE ( 'NONE', #254, #39 ) ;
#169 = AXIS2_PLACEMENT_3D ( 'NONE', #17, #68, #103 ) ;
#170 = CARTESIAN_POINT ( 'NONE',  ( 0.000000000000000000, 0.000000000000000000, 10.00000000000000000 ) ) ;
#171 = DIRECTION ( 'NONE',  ( 0.000000000000000000, 0.000000000000000000, 1.000000000000000000 ) ) ;
#172 = PERSON_AND_ORGANIZATION ( #64, #236 ) ;
#173 = EDGE_CURVE ( 'NONE', #249, #21, #65, .T. ) ;
#174 = EDGE_LOOP ( 'NONE', ( #8, #35 ) ) ;
#175 = APPROVAL_ROLE ( '' ) ;
#176 = AXIS2_PLACEMENT_3D ( 'NONE', #9, #201, #117 ) ;
#177 = LOCAL_TIME ( 8, 46, 32.00000000000000000, #156 ) ;
#178 = CARTESIAN_POINT ( 'NONE',  ( 0.000000000000000000, 0.000000000000000000, 400.0000000000000000 ) ) ;
#179 = PERSON_AND_ORGANIZATION ( #64, #236 ) ;
#180 = APPROVAL_PERSON_ORGANIZATION ( #230, #121, #128 ) ;
#181 =( NAMED_UNIT ( * ) PLANE_ANGLE_UNIT ( ) SI_UNIT ( $, .RADIAN. ) );
#182 = ORIENTED_EDGE ( 'NONE', *, *, #70, .F. ) ;
#183 = CARTESIAN_POINT ( 'NONE',  ( 0.000000000000000000, 0.000000000000000000, 10.00000000000000000 ) ) ;
#184 = CC_DESIGN_PERSON_AND_ORGANIZATION_ASSIGNMENT ( #172, #240, ( #134 ) ) ;
#185 = ORIENTED_EDGE ( 'NONE', *, *, #59, .T. ) ;
#186 = CALENDAR_DATE ( 2023, 13, 2 ) ;
#187 = CALENDAR_DATE ( 2023, 13, 2 ) ;
#188 = ORIENTED_EDGE ( 'NONE', *, *, #112, .T. ) ;
#189 = SHAPE_DEFINITION_REPRESENTATION ( #79, #221 ) ;
#190 = FACE_OUTER_BOUND ( 'NONE', #160, .T. ) ;
#191 = ORIENTED_EDGE ( 'NONE', *, *, #213, .F. ) ;
#192 = APPROVAL_PERSON_ORGANIZATION ( #179, #6, #175 ) ;
#193 = CIRCLE ( 'NONE', #197, 20.00000000000000000 ) ;
#194 = CC_DESIGN_APPROVAL ( #121, ( #248 ) ) ;
#195 = CARTESIAN_POINT ( 'NONE',  ( 0.000000000000000000, 0.000000000000000000, 10.00000000000000000 ) ) ;
#196 = ORIENTED_EDGE ( 'NONE', *, *, #66, .F. ) ;
#197 = AXIS2_PLACEMENT_3D ( 'NONE', #183, #210, #251 ) ;
#198 = DIRECTION ( 'NONE',  ( -1.000000000000000000, 0.000000000000000000, 0.000000000000000000 ) ) ;
#199 = APPROVAL_STATUS ( 'not_yet_approved' ) ;
#200 = PLANE ( 'NONE',  #162 ) ;
#201 = DIRECTION ( 'NONE',  ( -0.000000000000000000, -0.000000000000000000, -1.000000000000000000 ) ) ;
#202 = ORIENTED_EDGE ( 'NONE', *, *, #100, .T. ) ;
#203 = DIRECTION ( 'NONE',  ( 1.000000000000000000, 0.000000000000000000, -0.000000000000000000 ) ) ;
#204 = EDGE_LOOP ( 'NONE', ( #50, #191 ) ) ;
#205 = DATE_TIME_ROLE ( 'classification_date' ) ;
#206 = CARTESIAN_POINT ( 'NONE',  ( -20.00000000000000000, 0.000000000000000000, 10.00000000000000000 ) ) ;
#207 = CARTESIAN_POINT ( 'NONE',  ( -16.00000000000000000, 0.000000000000000000, 400.0000000000000000 ) ) ;
#208 = CIRCLE ( 'NONE', #91, 16.00000000000000000 ) ;
#209 = ADVANCED_FACE ( 'NONE', ( #125 ), #200, .F. ) ;
#210 = DIRECTION ( 'NONE',  ( 0.000000000000000000, 0.000000000000000000, 1.000000000000000000 ) ) ;
#211 = DIRECTION ( 'NONE',  ( 1.000000000000000000, 0.000000000000000000, 0.000000000000000000 ) ) ;
#212 = CIRCLE ( 'NONE', #169, 20.00000000000000000 ) ;
#213 = EDGE_CURVE ( 'NONE', #157, #44, #62, .T. ) ;
#214 = ORIENTED_EDGE ( 'NONE', *, *, #233, .F. ) ;
#215 = VECTOR ( 'NONE', #246, 1000.000000000000000 ) ;
#216 = CC_DESIGN_PERSON_AND_ORGANIZATION_ASSIGNMENT ( #86, #127, ( #248 ) ) ;
#217 = CALENDAR_DATE ( 2023, 13, 2 ) ;
#218 = FACE_OUTER_BOUND ( 'NONE', #174, .T. ) ;
#219 = DATE_AND_TIME ( #61, #19 ) ;
#220 = COORDINATED_UNIVERSAL_TIME_OFFSET ( 1, 0, .AHEAD. ) ;
#221 = ADVANCED_BREP_SHAPE_REPRESENTATION ( '2ae0', ( #106, #123 ), #253 ) ;
#222 = MECHANICAL_CONTEXT ( 'NONE', #158, 'mechanical' ) ;
#223 = ORIENTED_EDGE ( 'NONE', *, *, #241, .F. ) ;
#224 = ADVANCED_FACE ( 'NONE', ( #190 ), #225, .T. ) ;
#225 = CYLINDRICAL_SURFACE ( 'NONE', #45, 20.00000000000000000 ) ;
#226 = AXIS2_PLACEMENT_3D ( 'NONE', #178, #135, #40 ) ;
#227 = ORIENTED_EDGE ( 'NONE', *, *, #112, .F. ) ;
#228 = PERSON_AND_ORGANIZATION_ROLE ( 'creator' ) ;
#229 = DIRECTION ( 'NONE',  ( -0.000000000000000000, -0.000000000000000000, -1.000000000000000000 ) ) ;
#230 = PERSON_AND_ORGANIZATION ( #64, #236 ) ;
#231 = AXIS2_PLACEMENT_3D ( 'NONE', #60, #42, #114 ) ;
#232 = CARTESIAN_POINT ( 'NONE',  ( -20.00000000000000000, 0.000000000000000000, 10.00000000000000000 ) ) ;
#233 = EDGE_CURVE ( 'NONE', #15, #94, #193, .T. ) ;
#234 = DIRECTION ( 'NONE',  ( 1.000000000000000000, 0.000000000000000000, 0.000000000000000000 ) ) ;
#235 = DIRECTION ( 'NONE',  ( 1.000000000000000000, 0.000000000000000000, -0.000000000000000000 ) ) ;
#236 = ORGANIZATION ( 'NEURÈENÝ', 'NEURÈENÝ', '' ) ;
#237 = CC_DESIGN_APPROVAL ( #6, ( #49 ) ) ;
#238 = ORIENTED_EDGE ( 'NONE', *, *, #213, .T. ) ;
#239 = PERSON_AND_ORGANIZATION_ROLE ( 'creator' ) ;
#240 = PERSON_AND_ORGANIZATION_ROLE ( 'design_owner' ) ;
#241 = EDGE_CURVE ( 'NONE', #94, #44, #32, .T. ) ;
#242 = COORDINATED_UNIVERSAL_TIME_OFFSET ( 1, 0, .AHEAD. ) ;
#243 = CC_DESIGN_DATE_AND_TIME_ASSIGNMENT ( #88, #205, ( #248 ) ) ;
#244 = DIRECTION ( 'NONE',  ( 1.000000000000000000, 0.000000000000000000, 0.000000000000000000 ) ) ;
#245 = ORIENTED_EDGE ( 'NONE', *, *, #233, .T. ) ;
#246 = DIRECTION ( 'NONE',  ( -0.000000000000000000, -0.000000000000000000, -1.000000000000000000 ) ) ;
#247 = CIRCLE ( 'NONE', #231, 16.00000000000000000 ) ;
#248 = SECURITY_CLASSIFICATION ( '', '', #13 ) ;
#249 = VERTEX_POINT ( 'NONE', #14 ) ;
#250 = DIRECTION ( 'NONE',  ( -0.000000000000000000, -0.000000000000000000, -1.000000000000000000 ) ) ;
#251 = DIRECTION ( 'NONE',  ( 1.000000000000000000, 0.000000000000000000, 0.000000000000000000 ) ) ;
#252 = DIRECTION ( 'NONE',  ( -0.000000000000000000, -0.000000000000000000, -1.000000000000000000 ) ) ;
#253 =( GEOMETRIC_REPRESENTATION_CONTEXT ( 3 ) GLOBAL_UNCERTAINTY_ASSIGNED_CONTEXT ( ( #167 ) ) GLOBAL_UNIT_ASSIGNED_CONTEXT ( ( #105, #181, #69 ) ) REPRESENTATION_CONTEXT ( 'NONE', 'WORKASPACE' ) );
#254 = CARTESIAN_POINT ( 'NONE',  ( 20.00000000000000000, 2.449293598294706513E-15, 10.00000000000000000 ) ) ;
#255 = EDGE_CURVE ( 'NONE', #147, #21, #30, .T. ) ;
ENDSEC;
END-ISO-10303-21;
