ISO-10303-21;
HEADER;
FILE_DESCRIPTION (( 'STEP AP203' ),
    '1' );
FILE_NAME ('9acf.STEP',
    '2023-02-13T09:14:26',
    ( '' ),
    ( '' ),
    'SwSTEP 2.0',
    'SolidWorks 2019',
    '' );
FILE_SCHEMA (( 'CONFIG_CONTROL_DESIGN' ));
ENDSEC;

DATA;
#1 = CC_DESIGN_PERSON_AND_ORGANIZATION_ASSIGNMENT ( #132, #39, ( #136 ) ) ;
#2 = ORIENTED_EDGE ( 'NONE', *, *, #29, .T. ) ;
#3 = CARTESIAN_POINT ( 'NONE',  ( -12.00000000000000178, 0.000000000000000000, 7.000000000000000000 ) ) ;
#4 = VECTOR ( 'NONE', #141, 1000.000000000000000 ) ;
#5 = CARTESIAN_POINT ( 'NONE',  ( -9.000000000000000000, 0.000000000000000000, 7.000000000000000000 ) ) ;
#6 = CIRCLE ( 'NONE', #98, 12.00000000000000178 ) ;
#7 = CC_DESIGN_PERSON_AND_ORGANIZATION_ASSIGNMENT ( #218, #198, ( #38 ) ) ;
#8 = CALENDAR_DATE ( 2023, 13, 2 ) ;
#9 = CARTESIAN_POINT ( 'NONE',  ( 0.000000000000000000, 0.000000000000000000, 0.000000000000000000 ) ) ;
#10 = EDGE_CURVE ( 'NONE', #173, #202, #46, .T. ) ;
#11 = DIRECTION ( 'NONE',  ( 0.000000000000000000, 0.000000000000000000, 1.000000000000000000 ) ) ;
#12 = DIRECTION ( 'NONE',  ( 1.000000000000000000, 0.000000000000000000, 0.000000000000000000 ) ) ;
#13 = DATE_AND_TIME ( #152, #27 ) ;
#14 = LINE ( 'NONE', #80, #76 ) ;
#15 = EDGE_CURVE ( 'NONE', #202, #173, #55, .T. ) ;
#16 = CALENDAR_DATE ( 2023, 13, 2 ) ;
#17 = EDGE_LOOP ( 'NONE', ( #104, #227, #2, #126 ) ) ;
#18 = APPROVAL_DATE_TIME ( #183, #146 ) ;
#19 = ORIENTED_EDGE ( 'NONE', *, *, #10, .F. ) ;
#20 = PERSON_AND_ORGANIZATION ( #125, #210 ) ;
#21 = CARTESIAN_POINT ( 'NONE',  ( 9.000000000000000000, 1.102182119232617517E-15, 100.0000000000000000 ) ) ;
#22 = AXIS2_PLACEMENT_3D ( 'NONE', #253, #156, #239 ) ;
#23 = ORIENTED_EDGE ( 'NONE', *, *, #221, .F. ) ;
#24 = AXIS2_PLACEMENT_3D ( 'NONE', #112, #175, #247 ) ;
#25 = CLOSED_SHELL ( 'NONE', ( #74, #91, #129, #88, #138, #188, #207 ) ) ;
#26 = CARTESIAN_POINT ( 'NONE',  ( 0.000000000000000000, 0.000000000000000000, 100.0000000000000000 ) ) ;
#27 = LOCAL_TIME ( 10, 14, 26.00000000000000000, #179 ) ;
#28 = ORIENTED_EDGE ( 'NONE', *, *, #221, .T. ) ;
#29 = EDGE_CURVE ( 'NONE', #147, #189, #73, .T. ) ;
#30 = VECTOR ( 'NONE', #236, 1000.000000000000000 ) ;
#31 = ORIENTED_EDGE ( 'NONE', *, *, #15, .F. ) ;
#32 = LINE ( 'NONE', #53, #30 ) ;
#33 = DIRECTION ( 'NONE',  ( 1.000000000000000000, 0.000000000000000000, 0.000000000000000000 ) ) ;
#34 = LOCAL_TIME ( 10, 14, 26.00000000000000000, #139 ) ;
#35 = AXIS2_PLACEMENT_3D ( 'NONE', #101, #130, #220 ) ;
#36 = DIRECTION ( 'NONE',  ( 1.000000000000000000, 0.000000000000000000, -0.000000000000000000 ) ) ;
#37 = CARTESIAN_POINT ( 'NONE',  ( 0.000000000000000000, 0.000000000000000000, 7.000000000000000000 ) ) ;
#38 = PRODUCT ( '9acf', '9acf', '', ( #71 ) ) ;
#39 = PERSON_AND_ORGANIZATION_ROLE ( 'creator' ) ;
#40 = DIRECTION ( 'NONE',  ( 1.000000000000000000, 0.000000000000000000, -0.000000000000000000 ) ) ;
#41 = ORIENTED_EDGE ( 'NONE', *, *, #196, .F. ) ;
#42 =( GEOMETRIC_REPRESENTATION_CONTEXT ( 3 ) GLOBAL_UNCERTAINTY_ASSIGNED_CONTEXT ( ( #107 ) ) GLOBAL_UNIT_ASSIGNED_CONTEXT ( ( #68, #230, #45 ) ) REPRESENTATION_CONTEXT ( 'NONE', 'WORKASPACE' ) );
#43 = CARTESIAN_POINT ( 'NONE',  ( 0.000000000000000000, 0.000000000000000000, 100.0000000000000000 ) ) ;
#44 = ORIENTED_EDGE ( 'NONE', *, *, #15, .T. ) ;
#45 =( NAMED_UNIT ( * ) SI_UNIT ( $, .STERADIAN. ) SOLID_ANGLE_UNIT ( ) );
#46 = CIRCLE ( 'NONE', #255, 12.00000000000000178 ) ;
#47 = CARTESIAN_POINT ( 'NONE',  ( 0.000000000000000000, 0.000000000000000000, 100.0000000000000000 ) ) ;
#48 = ORIENTED_EDGE ( 'NONE', *, *, #196, .T. ) ;
#49 = CARTESIAN_POINT ( 'NONE',  ( 0.000000000000000000, 0.000000000000000000, 0.000000000000000000 ) ) ;
#50 = APPROVAL_PERSON_ORGANIZATION ( #128, #229, #170 ) ;
#51 = PRODUCT_DEFINITION ( 'NEZNÁMÝ', '', #136, #121 ) ;
#52 = FACE_OUTER_BOUND ( 'NONE', #215, .T. ) ;
#53 = CARTESIAN_POINT ( 'NONE',  ( -9.000000000000000000, 0.000000000000000000, 100.0000000000000000 ) ) ;
#54 = DATE_AND_TIME ( #8, #77 ) ;
#55 = CIRCLE ( 'NONE', #35, 12.00000000000000178 ) ;
#56 = ORIENTED_EDGE ( 'NONE', *, *, #70, .F. ) ;
#57 = FACE_OUTER_BOUND ( 'NONE', #231, .T. ) ;
#58 = CARTESIAN_POINT ( 'NONE',  ( 0.000000000000000000, 0.000000000000000000, 7.000000000000000000 ) ) ;
#59 = AXIS2_PLACEMENT_3D ( 'NONE', #249, #11, #36 ) ;
#60 = ORIENTED_EDGE ( 'NONE', *, *, #106, .T. ) ;
#61 = EDGE_CURVE ( 'NONE', #202, #157, #14, .T. ) ;
#62 = LINE ( 'NONE', #117, #176 ) ;
#63 = LOCAL_TIME ( 10, 14, 26.00000000000000000, #228 ) ;
#64 = FACE_OUTER_BOUND ( 'NONE', #224, .T. ) ;
#65 = DIRECTION ( 'NONE',  ( 0.000000000000000000, 0.000000000000000000, 1.000000000000000000 ) ) ;
#66 = DIRECTION ( 'NONE',  ( 0.000000000000000000, 0.000000000000000000, 1.000000000000000000 ) ) ;
#67 = EDGE_LOOP ( 'NONE', ( #48, #244 ) ) ;
#68 =( LENGTH_UNIT ( ) NAMED_UNIT ( * ) SI_UNIT ( .MILLI., .METRE. ) );
#69 = CARTESIAN_POINT ( 'NONE',  ( 12.00000000000000178, 1.469576158976824144E-15, 0.000000000000000000 ) ) ;
#70 = EDGE_CURVE ( 'NONE', #201, #147, #62, .T. ) ;
#71 = MECHANICAL_CONTEXT ( 'NONE', #193, 'mechanical' ) ;
#72 = AXIS2_PLACEMENT_3D ( 'NONE', #191, #87, #209 ) ;
#73 = CIRCLE ( 'NONE', #204, 9.000000000000000000 ) ;
#74 = ADVANCED_FACE ( 'NONE', ( #251 ), #79, .T. ) ;
#75 = ORIENTED_EDGE ( 'NONE', *, *, #106, .F. ) ;
#76 = VECTOR ( 'NONE', #133, 1000.000000000000000 ) ;
#77 = LOCAL_TIME ( 10, 14, 26.00000000000000000, #217 ) ;
#78 = CYLINDRICAL_SURFACE ( 'NONE', #24, 12.00000000000000178 ) ;
#79 = CYLINDRICAL_SURFACE ( 'NONE', #22, 9.000000000000000000 ) ;
#80 = CARTESIAN_POINT ( 'NONE',  ( -12.00000000000000178, 0.000000000000000000, 7.000000000000000000 ) ) ;
#81 = CC_DESIGN_PERSON_AND_ORGANIZATION_ASSIGNMENT ( #206, #135, ( #177 ) ) ;
#82 = AXIS2_PLACEMENT_3D ( 'NONE', #86, #65, #190 ) ;
#83 = DIRECTION ( 'NONE',  ( 0.000000000000000000, 0.000000000000000000, 1.000000000000000000 ) ) ;
#84 = ORIENTED_EDGE ( 'NONE', *, *, #250, .F. ) ;
#85 = AXIS2_PLACEMENT_3D ( 'NONE', #197, #92, #33 ) ;
#86 = CARTESIAN_POINT ( 'NONE',  ( 0.000000000000000000, 0.000000000000000000, 100.0000000000000000 ) ) ;
#87 = DIRECTION ( 'NONE',  ( 0.000000000000000000, 0.000000000000000000, 1.000000000000000000 ) ) ;
#88 = ADVANCED_FACE ( 'NONE', ( #153, #131 ), #222, .T. ) ;
#89 = DIRECTION ( 'NONE',  ( 0.000000000000000000, 0.000000000000000000, 1.000000000000000000 ) ) ;
#90 = LOCAL_TIME ( 10, 14, 26.00000000000000000, #185 ) ;
#91 = ADVANCED_FACE ( 'NONE', ( #52 ), #172, .T. ) ;
#92 = DIRECTION ( 'NONE',  ( 0.000000000000000000, 0.000000000000000000, 1.000000000000000000 ) ) ;
#93 = DIRECTION ( 'NONE',  ( 1.000000000000000000, 0.000000000000000000, 0.000000000000000000 ) ) ;
#94 = EDGE_CURVE ( 'NONE', #118, #189, #32, .T. ) ;
#95 = EDGE_LOOP ( 'NONE', ( #44, #140 ) ) ;
#96 = APPROVAL_DATE_TIME ( #54, #229 ) ;
#97 = CARTESIAN_POINT ( 'NONE',  ( 9.000000000000000000, 1.102182119232617517E-15, 7.000000000000000000 ) ) ;
#98 = AXIS2_PLACEMENT_3D ( 'NONE', #9, #232, #111 ) ;
#99 = ORIENTED_EDGE ( 'NONE', *, *, #250, .T. ) ;
#100 = PERSON_AND_ORGANIZATION ( #125, #210 ) ;
#101 = CARTESIAN_POINT ( 'NONE',  ( 0.000000000000000000, 0.000000000000000000, 7.000000000000000000 ) ) ;
#102 = DATE_TIME_ROLE ( 'creation_date' ) ;
#103 = APPROVAL_STATUS ( 'not_yet_approved' ) ;
#104 = ORIENTED_EDGE ( 'NONE', *, *, #165, .F. ) ;
#105 = DIRECTION ( 'NONE',  ( 1.000000000000000000, 0.000000000000000000, 0.000000000000000000 ) ) ;
#106 = EDGE_CURVE ( 'NONE', #157, #219, #6, .T. ) ;
#107 = UNCERTAINTY_MEASURE_WITH_UNIT (LENGTH_MEASURE( 1.000000000000000082E-05 ), #68, 'distance_accuracy_value', 'NONE');
#108 = CARTESIAN_POINT ( 'NONE',  ( 12.00000000000000178, 1.469576158976824144E-15, 7.000000000000000000 ) ) ;
#109 = CIRCLE ( 'NONE', #116, 9.000000000000000000 ) ;
#110 = PRODUCT_DEFINITION_SHAPE ( 'NONE', 'NONE',  #51 ) ;
#111 = DIRECTION ( 'NONE',  ( 1.000000000000000000, 0.000000000000000000, 0.000000000000000000 ) ) ;
#112 = CARTESIAN_POINT ( 'NONE',  ( 0.000000000000000000, 0.000000000000000000, 7.000000000000000000 ) ) ;
#113 = APPROVAL_ROLE ( '' ) ;
#114 = EDGE_CURVE ( 'NONE', #189, #147, #243, .T. ) ;
#115 = PERSON_AND_ORGANIZATION_ROLE ( 'design_supplier' ) ;
#116 = AXIS2_PLACEMENT_3D ( 'NONE', #26, #120, #105 ) ;
#117 = CARTESIAN_POINT ( 'NONE',  ( 9.000000000000000000, 1.102182119232617517E-15, 100.0000000000000000 ) ) ;
#118 = VERTEX_POINT ( 'NONE', #149 ) ;
#119 = CARTESIAN_POINT ( 'NONE',  ( 12.00000000000000178, 1.469576158976824144E-15, 7.000000000000000000 ) ) ;
#120 = DIRECTION ( 'NONE',  ( 0.000000000000000000, 0.000000000000000000, 1.000000000000000000 ) ) ;
#121 = DESIGN_CONTEXT ( 'detailed design', #150, 'design' ) ;
#122 = CC_DESIGN_SECURITY_CLASSIFICATION ( #177, ( #136 ) ) ;
#123 = CARTESIAN_POINT ( 'NONE',  ( 0.000000000000000000, 0.000000000000000000, 7.000000000000000000 ) ) ;
#124 = CC_DESIGN_DATE_AND_TIME_ASSIGNMENT ( #225, #102, ( #51 ) ) ;
#125 = PERSON ( 'NEURÈENÝ', 'NEURÈENÝ', 'NEURÈENÝ', ('NEURÈENÝ'), ('NEURÈENÝ'), ('NEURÈENÝ') ) ;
#126 = ORIENTED_EDGE ( 'NONE', *, *, #94, .F. ) ;
#127 = EDGE_LOOP ( 'NONE', ( #84, #31, #151, #60 ) ) ;
#128 = PERSON_AND_ORGANIZATION ( #125, #210 ) ;
#129 = ADVANCED_FACE ( 'NONE', ( #216 ), #78, .T. ) ;
#130 = DIRECTION ( 'NONE',  ( 0.000000000000000000, 0.000000000000000000, 1.000000000000000000 ) ) ;
#131 = FACE_OUTER_BOUND ( 'NONE', #95, .T. ) ;
#132 = PERSON_AND_ORGANIZATION ( #125, #210 ) ;
#133 = DIRECTION ( 'NONE',  ( -0.000000000000000000, -0.000000000000000000, -1.000000000000000000 ) ) ;
#134 = DATE_TIME_ROLE ( 'classification_date' ) ;
#135 = PERSON_AND_ORGANIZATION_ROLE ( 'classification_officer' ) ;
#136 = PRODUCT_DEFINITION_FORMATION_WITH_SPECIFIED_SOURCE ( 'LIBOVOLNÝ', '', #38, .NOT_KNOWN. ) ;
#137 = SECURITY_CLASSIFICATION_LEVEL ( 'unclassified' ) ;
#138 = ADVANCED_FACE ( 'NONE', ( #57 ), #199, .F. ) ;
#139 = COORDINATED_UNIVERSAL_TIME_OFFSET ( 1, 0, .AHEAD. ) ;
#140 = ORIENTED_EDGE ( 'NONE', *, *, #10, .T. ) ;
#141 = DIRECTION ( 'NONE',  ( -0.000000000000000000, -0.000000000000000000, -1.000000000000000000 ) ) ;
#142 = APPROVAL ( #187, 'NEURÈENÝ' ) ;
#143 = PLANE ( 'NONE',  #82 ) ;
#144 = ADVANCED_BREP_SHAPE_REPRESENTATION ( '9acf', ( #237, #167 ), #42 ) ;
#145 = AXIS2_PLACEMENT_3D ( 'NONE', #43, #163, #245 ) ;
#146 = APPROVAL ( #103, 'NEURÈENÝ' ) ;
#147 = VERTEX_POINT ( 'NONE', #97 ) ;
#148 = APPLICATION_PROTOCOL_DEFINITION ( 'international standard', 'config_control_design', 1994, #150 ) ;
#149 = CARTESIAN_POINT ( 'NONE',  ( -9.000000000000000000, 0.000000000000000000, 100.0000000000000000 ) ) ;
#150 = APPLICATION_CONTEXT ( 'configuration controlled 3d designs of mechanical parts and assemblies' ) ;
#151 = ORIENTED_EDGE ( 'NONE', *, *, #61, .T. ) ;
#152 = CALENDAR_DATE ( 2023, 13, 2 ) ;
#153 = FACE_BOUND ( 'NONE', #184, .T. ) ;
#154 = CC_DESIGN_APPROVAL ( #229, ( #51 ) ) ;
#155 = CC_DESIGN_DATE_AND_TIME_ASSIGNMENT ( #254, #134, ( #177 ) ) ;
#156 = DIRECTION ( 'NONE',  ( -0.000000000000000000, -0.000000000000000000, -1.000000000000000000 ) ) ;
#157 = VERTEX_POINT ( 'NONE', #159 ) ;
#158 = CALENDAR_DATE ( 2023, 13, 2 ) ;
#159 = CARTESIAN_POINT ( 'NONE',  ( -12.00000000000000178, 0.000000000000000000, 0.000000000000000000 ) ) ;
#160 = SHAPE_DEFINITION_REPRESENTATION ( #110, #144 ) ;
#161 = CYLINDRICAL_SURFACE ( 'NONE', #145, 9.000000000000000000 ) ;
#162 = ORIENTED_EDGE ( 'NONE', *, *, #29, .F. ) ;
#163 = DIRECTION ( 'NONE',  ( -0.000000000000000000, -0.000000000000000000, -1.000000000000000000 ) ) ;
#164 = LINE ( 'NONE', #119, #4 ) ;
#165 = EDGE_CURVE ( 'NONE', #201, #118, #248, .T. ) ;
#166 = CC_DESIGN_APPROVAL ( #146, ( #177 ) ) ;
#167 = AXIS2_PLACEMENT_3D ( 'NONE', #49, #89, #195 ) ;
#168 = AXIS2_PLACEMENT_3D ( 'NONE', #37, #223, #40 ) ;
#169 = PRODUCT_RELATED_PRODUCT_CATEGORY ( 'detail', '', ( #38 ) ) ;
#170 = APPROVAL_ROLE ( '' ) ;
#171 = DIRECTION ( 'NONE',  ( -0.000000000000000000, -0.000000000000000000, -1.000000000000000000 ) ) ;
#172 = CYLINDRICAL_SURFACE ( 'NONE', #192, 12.00000000000000178 ) ;
#173 = VERTEX_POINT ( 'NONE', #108 ) ;
#174 = APPROVAL_STATUS ( 'not_yet_approved' ) ;
#175 = DIRECTION ( 'NONE',  ( -0.000000000000000000, -0.000000000000000000, -1.000000000000000000 ) ) ;
#176 = VECTOR ( 'NONE', #178, 1000.000000000000000 ) ;
#177 = SECURITY_CLASSIFICATION ( '', '', #137 ) ;
#178 = DIRECTION ( 'NONE',  ( -0.000000000000000000, -0.000000000000000000, -1.000000000000000000 ) ) ;
#179 = COORDINATED_UNIVERSAL_TIME_OFFSET ( 1, 0, .AHEAD. ) ;
#180 = CARTESIAN_POINT ( 'NONE',  ( 0.000000000000000000, 0.000000000000000000, 7.000000000000000000 ) ) ;
#181 = ORIENTED_EDGE ( 'NONE', *, *, #114, .T. ) ;
#182 = CC_DESIGN_PERSON_AND_ORGANIZATION_ASSIGNMENT ( #100, #235, ( #51 ) ) ;
#183 = DATE_AND_TIME ( #16, #63 ) ;
#184 = EDGE_LOOP ( 'NONE', ( #208, #162 ) ) ;
#185 = COORDINATED_UNIVERSAL_TIME_OFFSET ( 1, 0, .AHEAD. ) ;
#186 = DIRECTION ( 'NONE',  ( 0.000000000000000000, 0.000000000000000000, 1.000000000000000000 ) ) ;
#187 = APPROVAL_STATUS ( 'not_yet_approved' ) ;
#188 = ADVANCED_FACE ( 'NONE', ( #64 ), #161, .T. ) ;
#189 = VERTEX_POINT ( 'NONE', #5 ) ;
#190 = DIRECTION ( 'NONE',  ( 1.000000000000000000, 0.000000000000000000, -0.000000000000000000 ) ) ;
#191 = CARTESIAN_POINT ( 'NONE',  ( 0.000000000000000000, 0.000000000000000000, 0.000000000000000000 ) ) ;
#192 = AXIS2_PLACEMENT_3D ( 'NONE', #123, #171, #234 ) ;
#193 = APPLICATION_CONTEXT ( 'configuration controlled 3d designs of mechanical parts and assemblies' ) ;
#194 = ORIENTED_EDGE ( 'NONE', *, *, #94, .T. ) ;
#195 = DIRECTION ( 'NONE',  ( 1.000000000000000000, 0.000000000000000000, 0.000000000000000000 ) ) ;
#196 = EDGE_CURVE ( 'NONE', #118, #201, #109, .T. ) ;
#197 = CARTESIAN_POINT ( 'NONE',  ( 0.000000000000000000, 0.000000000000000000, 7.000000000000000000 ) ) ;
#198 = PERSON_AND_ORGANIZATION_ROLE ( 'design_owner' ) ;
#199 = PLANE ( 'NONE',  #59 ) ;
#200 = CC_DESIGN_APPROVAL ( #142, ( #136 ) ) ;
#201 = VERTEX_POINT ( 'NONE', #21 ) ;
#202 = VERTEX_POINT ( 'NONE', #3 ) ;
#203 = CALENDAR_DATE ( 2023, 13, 2 ) ;
#204 = AXIS2_PLACEMENT_3D ( 'NONE', #180, #83, #93 ) ;
#205 = AXIS2_PLACEMENT_3D ( 'NONE', #47, #66, #213 ) ;
#206 = PERSON_AND_ORGANIZATION ( #125, #210 ) ;
#207 = ADVANCED_FACE ( 'NONE', ( #242 ), #143, .T. ) ;
#208 = ORIENTED_EDGE ( 'NONE', *, *, #114, .F. ) ;
#209 = DIRECTION ( 'NONE',  ( 1.000000000000000000, 0.000000000000000000, 0.000000000000000000 ) ) ;
#210 = ORGANIZATION ( 'NEURÈENÝ', 'NEURÈENÝ', '' ) ;
#211 = CC_DESIGN_PERSON_AND_ORGANIZATION_ASSIGNMENT ( #240, #115, ( #136 ) ) ;
#212 = APPLICATION_PROTOCOL_DEFINITION ( 'international standard', 'config_control_design', 1994, #193 ) ;
#213 = DIRECTION ( 'NONE',  ( 1.000000000000000000, 0.000000000000000000, 0.000000000000000000 ) ) ;
#214 = APPROVAL_PERSON_ORGANIZATION ( #20, #146, #241 ) ;
#215 = EDGE_LOOP ( 'NONE', ( #19, #99, #28, #246 ) ) ;
#216 = FACE_OUTER_BOUND ( 'NONE', #127, .T. ) ;
#217 = COORDINATED_UNIVERSAL_TIME_OFFSET ( 1, 0, .AHEAD. ) ;
#218 = PERSON_AND_ORGANIZATION ( #125, #210 ) ;
#219 = VERTEX_POINT ( 'NONE', #69 ) ;
#220 = DIRECTION ( 'NONE',  ( 1.000000000000000000, 0.000000000000000000, 0.000000000000000000 ) ) ;
#221 = EDGE_CURVE ( 'NONE', #219, #157, #233, .T. ) ;
#222 = PLANE ( 'NONE',  #168 ) ;
#223 = DIRECTION ( 'NONE',  ( 0.000000000000000000, 0.000000000000000000, 1.000000000000000000 ) ) ;
#224 = EDGE_LOOP ( 'NONE', ( #56, #41, #194, #181 ) ) ;
#225 = DATE_AND_TIME ( #158, #90 ) ;
#226 = APPROVAL_PERSON_ORGANIZATION ( #252, #142, #113 ) ;
#227 = ORIENTED_EDGE ( 'NONE', *, *, #70, .T. ) ;
#228 = COORDINATED_UNIVERSAL_TIME_OFFSET ( 1, 0, .AHEAD. ) ;
#229 = APPROVAL ( #174, 'NEURÈENÝ' ) ;
#230 =( NAMED_UNIT ( * ) PLANE_ANGLE_UNIT ( ) SI_UNIT ( $, .RADIAN. ) );
#231 = EDGE_LOOP ( 'NONE', ( #75, #23 ) ) ;
#232 = DIRECTION ( 'NONE',  ( 0.000000000000000000, 0.000000000000000000, 1.000000000000000000 ) ) ;
#233 = CIRCLE ( 'NONE', #72, 12.00000000000000178 ) ;
#234 = DIRECTION ( 'NONE',  ( -1.000000000000000000, 0.000000000000000000, 0.000000000000000000 ) ) ;
#235 = PERSON_AND_ORGANIZATION_ROLE ( 'creator' ) ;
#236 = DIRECTION ( 'NONE',  ( -0.000000000000000000, -0.000000000000000000, -1.000000000000000000 ) ) ;
#237 = MANIFOLD_SOLID_BREP ( 'Pøidat vysunutím3', #25 ) ;
#238 = APPROVAL_DATE_TIME ( #13, #142 ) ;
#239 = DIRECTION ( 'NONE',  ( -1.000000000000000000, 0.000000000000000000, 0.000000000000000000 ) ) ;
#240 = PERSON_AND_ORGANIZATION ( #125, #210 ) ;
#241 = APPROVAL_ROLE ( '' ) ;
#242 = FACE_OUTER_BOUND ( 'NONE', #67, .T. ) ;
#243 = CIRCLE ( 'NONE', #85, 9.000000000000000000 ) ;
#244 = ORIENTED_EDGE ( 'NONE', *, *, #165, .T. ) ;
#245 = DIRECTION ( 'NONE',  ( -1.000000000000000000, 0.000000000000000000, 0.000000000000000000 ) ) ;
#246 = ORIENTED_EDGE ( 'NONE', *, *, #61, .F. ) ;
#247 = DIRECTION ( 'NONE',  ( -1.000000000000000000, 0.000000000000000000, 0.000000000000000000 ) ) ;
#248 = CIRCLE ( 'NONE', #205, 9.000000000000000000 ) ;
#249 = CARTESIAN_POINT ( 'NONE',  ( 0.000000000000000000, 0.000000000000000000, 0.000000000000000000 ) ) ;
#250 = EDGE_CURVE ( 'NONE', #173, #219, #164, .T. ) ;
#251 = FACE_OUTER_BOUND ( 'NONE', #17, .T. ) ;
#252 = PERSON_AND_ORGANIZATION ( #125, #210 ) ;
#253 = CARTESIAN_POINT ( 'NONE',  ( 0.000000000000000000, 0.000000000000000000, 100.0000000000000000 ) ) ;
#254 = DATE_AND_TIME ( #203, #34 ) ;
#255 = AXIS2_PLACEMENT_3D ( 'NONE', #58, #186, #12 ) ;
ENDSEC;
END-ISO-10303-21;
