ISO-10303-21;
HEADER;
FILE_DESCRIPTION (( 'STEP AP203' ),
    '1' );
FILE_NAME ('c3f6.STEP',
    '2023-02-13T09:16:36',
    ( '' ),
    ( '' ),
    'SwSTEP 2.0',
    'SolidWorks 2019',
    '' );
FILE_SCHEMA (( 'CONFIG_CONTROL_DESIGN' ));
ENDSEC;

DATA;
#1 = ORGANIZATION ( 'NEURÈENÝ', 'NEURÈENÝ', '' ) ;
#2 = CARTESIAN_POINT ( 'NONE',  ( -7.000000000000000000, 0.000000000000000000, 250.0000000000000000 ) ) ;
#3 = VERTEX_POINT ( 'NONE', #170 ) ;
#4 = CARTESIAN_POINT ( 'NONE',  ( -11.00000000000000000, 0.000000000000000000, 7.000000000000000000 ) ) ;
#5 = PERSON_AND_ORGANIZATION ( #114, #1 ) ;
#6 = ORIENTED_EDGE ( 'NONE', *, *, #205, .T. ) ;
#7 = CARTESIAN_POINT ( 'NONE',  ( 0.000000000000000000, 0.000000000000000000, 7.000000000000000000 ) ) ;
#8 = CIRCLE ( 'NONE', #156, 11.00000000000000000 ) ;
#9 = PRODUCT_DEFINITION ( 'NEZNÁMÝ', '', #131, #97 ) ;
#10 = EDGE_LOOP ( 'NONE', ( #135, #217, #110, #132 ) ) ;
#11 = ADVANCED_FACE ( 'NONE', ( #126 ), #190, .T. ) ;
#12 = DIRECTION ( 'NONE',  ( 1.000000000000000000, 0.000000000000000000, -0.000000000000000000 ) ) ;
#13 = APPROVAL_ROLE ( '' ) ;
#14 = DIRECTION ( 'NONE',  ( 0.000000000000000000, 0.000000000000000000, 1.000000000000000000 ) ) ;
#15 = FACE_OUTER_BOUND ( 'NONE', #235, .T. ) ;
#16 = EDGE_LOOP ( 'NONE', ( #199, #22 ) ) ;
#17 = DIRECTION ( 'NONE',  ( 0.000000000000000000, 0.000000000000000000, 1.000000000000000000 ) ) ;
#18 = CARTESIAN_POINT ( 'NONE',  ( 0.000000000000000000, 0.000000000000000000, 0.000000000000000000 ) ) ;
#19 = FACE_OUTER_BOUND ( 'NONE', #196, .T. ) ;
#20 =( NAMED_UNIT ( * ) PLANE_ANGLE_UNIT ( ) SI_UNIT ( $, .RADIAN. ) );
#21 = SECURITY_CLASSIFICATION ( '', '', #31 ) ;
#22 = ORIENTED_EDGE ( 'NONE', *, *, #59, .F. ) ;
#23 = CC_DESIGN_DATE_AND_TIME_ASSIGNMENT ( #134, #193, ( #21 ) ) ;
#24 = LOCAL_TIME ( 10, 16, 36.00000000000000000, #38 ) ;
#25 = PRODUCT_RELATED_PRODUCT_CATEGORY ( 'detail', '', ( #121 ) ) ;
#26 = DATE_AND_TIME ( #68, #240 ) ;
#27 = PERSON_AND_ORGANIZATION ( #114, #1 ) ;
#28 = CARTESIAN_POINT ( 'NONE',  ( 0.000000000000000000, 0.000000000000000000, 0.000000000000000000 ) ) ;
#29 = APPROVAL_ROLE ( '' ) ;
#30 = CC_DESIGN_APPROVAL ( #116, ( #131 ) ) ;
#31 = SECURITY_CLASSIFICATION_LEVEL ( 'unclassified' ) ;
#32 = LINE ( 'NONE', #155, #252 ) ;
#33 = ORIENTED_EDGE ( 'NONE', *, *, #98, .F. ) ;
#34 = DIRECTION ( 'NONE',  ( 0.000000000000000000, 0.000000000000000000, 1.000000000000000000 ) ) ;
#35 = ORIENTED_EDGE ( 'NONE', *, *, #201, .F. ) ;
#36 = DIRECTION ( 'NONE',  ( -0.000000000000000000, -0.000000000000000000, -1.000000000000000000 ) ) ;
#37 = ADVANCED_FACE ( 'NONE', ( #15 ), #71, .T. ) ;
#38 = COORDINATED_UNIVERSAL_TIME_OFFSET ( 1, 0, .AHEAD. ) ;
#39 = VERTEX_POINT ( 'NONE', #69 ) ;
#40 = LINE ( 'NONE', #130, #102 ) ;
#41 = AXIS2_PLACEMENT_3D ( 'NONE', #226, #83, #253 ) ;
#42 = DIRECTION ( 'NONE',  ( 1.000000000000000000, 0.000000000000000000, 0.000000000000000000 ) ) ;
#43 = AXIS2_PLACEMENT_3D ( 'NONE', #18, #236, #191 ) ;
#44 = CIRCLE ( 'NONE', #223, 11.00000000000000000 ) ;
#45 = CIRCLE ( 'NONE', #157, 7.000000000000000000 ) ;
#46 = FACE_OUTER_BOUND ( 'NONE', #91, .T. ) ;
#47 = PERSON_AND_ORGANIZATION ( #114, #1 ) ;
#48 = DIRECTION ( 'NONE',  ( -0.000000000000000000, -0.000000000000000000, -1.000000000000000000 ) ) ;
#49 = PERSON_AND_ORGANIZATION_ROLE ( 'design_supplier' ) ;
#50 = LINE ( 'NONE', #2, #202 ) ;
#51 = DIRECTION ( 'NONE',  ( 0.000000000000000000, 0.000000000000000000, 1.000000000000000000 ) ) ;
#52 = PERSON_AND_ORGANIZATION_ROLE ( 'classification_officer' ) ;
#53 = APPROVAL_PERSON_ORGANIZATION ( #255, #62, #129 ) ;
#54 = DIRECTION ( 'NONE',  ( 1.000000000000000000, 0.000000000000000000, 0.000000000000000000 ) ) ;
#55 = ORIENTED_EDGE ( 'NONE', *, *, #192, .T. ) ;
#56 = CARTESIAN_POINT ( 'NONE',  ( 0.000000000000000000, 0.000000000000000000, 250.0000000000000000 ) ) ;
#57 = ORIENTED_EDGE ( 'NONE', *, *, #205, .F. ) ;
#58 = CC_DESIGN_APPROVAL ( #62, ( #21 ) ) ;
#59 = EDGE_CURVE ( 'NONE', #162, #39, #231, .T. ) ;
#60 = AXIS2_PLACEMENT_3D ( 'NONE', #138, #244, #105 ) ;
#61 = AXIS2_PLACEMENT_3D ( 'NONE', #184, #248, #42 ) ;
#62 = APPROVAL ( #125, 'NEURÈENÝ' ) ;
#63 = CARTESIAN_POINT ( 'NONE',  ( 0.000000000000000000, 0.000000000000000000, 7.000000000000000000 ) ) ;
#64 = EDGE_CURVE ( 'NONE', #245, #162, #254, .T. ) ;
#65 = APPLICATION_PROTOCOL_DEFINITION ( 'international standard', 'config_control_design', 1994, #241 ) ;
#66 = CALENDAR_DATE ( 2023, 13, 2 ) ;
#67 = DIRECTION ( 'NONE',  ( 0.000000000000000000, 0.000000000000000000, 1.000000000000000000 ) ) ;
#68 = CALENDAR_DATE ( 2023, 13, 2 ) ;
#69 = CARTESIAN_POINT ( 'NONE',  ( -7.000000000000000000, 0.000000000000000000, 7.000000000000000000 ) ) ;
#70 = PERSON_AND_ORGANIZATION_ROLE ( 'creator' ) ;
#71 = CYLINDRICAL_SURFACE ( 'NONE', #123, 11.00000000000000000 ) ;
#72 = CC_DESIGN_PERSON_AND_ORGANIZATION_ASSIGNMENT ( #5, #70, ( #131 ) ) ;
#73 = ORIENTED_EDGE ( 'NONE', *, *, #82, .T. ) ;
#74 = PLANE ( 'NONE',  #247 ) ;
#75 = ORIENTED_EDGE ( 'NONE', *, *, #152, .T. ) ;
#76 = ADVANCED_FACE ( 'NONE', ( #167, #46 ), #148, .T. ) ;
#77 = CARTESIAN_POINT ( 'NONE',  ( 0.000000000000000000, 0.000000000000000000, 0.000000000000000000 ) ) ;
#78 = AXIS2_PLACEMENT_3D ( 'NONE', #77, #34, #89 ) ;
#79 = CARTESIAN_POINT ( 'NONE',  ( 7.000000000000000000, 8.572527594031473190E-16, 7.000000000000000000 ) ) ;
#80 = DIRECTION ( 'NONE',  ( 0.000000000000000000, 0.000000000000000000, 1.000000000000000000 ) ) ;
#81 = ORIENTED_EDGE ( 'NONE', *, *, #203, .T. ) ;
#82 = EDGE_CURVE ( 'NONE', #39, #162, #45, .T. ) ;
#83 = DIRECTION ( 'NONE',  ( 0.000000000000000000, 0.000000000000000000, 1.000000000000000000 ) ) ;
#84 = COORDINATED_UNIVERSAL_TIME_OFFSET ( 1, 0, .AHEAD. ) ;
#85 = VERTEX_POINT ( 'NONE', #120 ) ;
#86 = CARTESIAN_POINT ( 'NONE',  ( -7.000000000000000000, 0.000000000000000000, 250.0000000000000000 ) ) ;
#87 = COORDINATED_UNIVERSAL_TIME_OFFSET ( 1, 0, .AHEAD. ) ;
#88 = ORIENTED_EDGE ( 'NONE', *, *, #212, .F. ) ;
#89 = DIRECTION ( 'NONE',  ( 1.000000000000000000, 0.000000000000000000, 0.000000000000000000 ) ) ;
#90 = DATE_AND_TIME ( #242, #24 ) ;
#91 = EDGE_LOOP ( 'NONE', ( #75, #81 ) ) ;
#92 = ADVANCED_BREP_SHAPE_REPRESENTATION ( 'c3f6', ( #229, #61 ), #224 ) ;
#93 = PERSON_AND_ORGANIZATION ( #114, #1 ) ;
#94 = FACE_OUTER_BOUND ( 'NONE', #10, .T. ) ;
#95 = APPLICATION_CONTEXT ( 'configuration controlled 3d designs of mechanical parts and assemblies' ) ;
#96 = VERTEX_POINT ( 'NONE', #227 ) ;
#97 = DESIGN_CONTEXT ( 'detailed design', #241, 'design' ) ;
#98 = EDGE_CURVE ( 'NONE', #85, #3, #8, .T. ) ;
#99 = CIRCLE ( 'NONE', #139, 7.000000000000000000 ) ;
#100 = CARTESIAN_POINT ( 'NONE',  ( 7.000000000000000000, 8.572527594031473190E-16, 250.0000000000000000 ) ) ;
#101 = DATE_AND_TIME ( #66, #169 ) ;
#102 = VECTOR ( 'NONE', #36, 1000.000000000000000 ) ;
#103 = APPROVAL_PERSON_ORGANIZATION ( #47, #116, #13 ) ;
#104 = ORIENTED_EDGE ( 'NONE', *, *, #203, .F. ) ;
#105 = DIRECTION ( 'NONE',  ( -1.000000000000000000, 0.000000000000000000, 0.000000000000000000 ) ) ;
#106 = CC_DESIGN_PERSON_AND_ORGANIZATION_ASSIGNMENT ( #115, #187, ( #121 ) ) ;
#107 = ORIENTED_EDGE ( 'NONE', *, *, #160, .F. ) ;
#108 = CARTESIAN_POINT ( 'NONE',  ( 0.000000000000000000, 0.000000000000000000, 250.0000000000000000 ) ) ;
#109 = CARTESIAN_POINT ( 'NONE',  ( 7.000000000000000000, 8.572527594031473190E-16, 250.0000000000000000 ) ) ;
#110 = ORIENTED_EDGE ( 'NONE', *, *, #59, .T. ) ;
#111 = DIRECTION ( 'NONE',  ( 0.000000000000000000, 0.000000000000000000, 1.000000000000000000 ) ) ;
#112 = UNCERTAINTY_MEASURE_WITH_UNIT (LENGTH_MEASURE( 1.000000000000000082E-05 ), #133, 'distance_accuracy_value', 'NONE');
#113 = ORIENTED_EDGE ( 'NONE', *, *, #201, .T. ) ;
#114 = PERSON ( 'NEURÈENÝ', 'NEURÈENÝ', 'NEURÈENÝ', ('NEURÈENÝ'), ('NEURÈENÝ'), ('NEURÈENÝ') ) ;
#115 = PERSON_AND_ORGANIZATION ( #114, #1 ) ;
#116 = APPROVAL ( #204, 'NEURÈENÝ' ) ;
#117 = VECTOR ( 'NONE', #234, 1000.000000000000000 ) ;
#118 = COORDINATED_UNIVERSAL_TIME_OFFSET ( 1, 0, .AHEAD. ) ;
#119 = APPROVAL_STATUS ( 'not_yet_approved' ) ;
#120 = CARTESIAN_POINT ( 'NONE',  ( -11.00000000000000000, 0.000000000000000000, 0.000000000000000000 ) ) ;
#121 = PRODUCT ( 'c3f6', 'c3f6', '', ( #200 ) ) ;
#122 = APPROVAL ( #119, 'NEURÈENÝ' ) ;
#123 = AXIS2_PLACEMENT_3D ( 'NONE', #207, #171, #213 ) ;
#124 = CIRCLE ( 'NONE', #142, 11.00000000000000000 ) ;
#125 = APPROVAL_STATUS ( 'not_yet_approved' ) ;
#126 = FACE_OUTER_BOUND ( 'NONE', #221, .T. ) ;
#127 = ORIENTED_EDGE ( 'NONE', *, *, #160, .T. ) ;
#128 = PLANE ( 'NONE',  #43 ) ;
#129 = APPROVAL_ROLE ( '' ) ;
#130 = CARTESIAN_POINT ( 'NONE',  ( 11.00000000000000000, 1.347111479062088405E-15, 7.000000000000000000 ) ) ;
#131 = PRODUCT_DEFINITION_FORMATION_WITH_SPECIFIED_SOURCE ( 'LIBOVOLNÝ', '', #121, .NOT_KNOWN. ) ;
#132 = ORIENTED_EDGE ( 'NONE', *, *, #249, .F. ) ;
#133 =( LENGTH_UNIT ( ) NAMED_UNIT ( * ) SI_UNIT ( .MILLI., .METRE. ) );
#134 = DATE_AND_TIME ( #232, #210 ) ;
#135 = ORIENTED_EDGE ( 'NONE', *, *, #192, .F. ) ;
#136 = FACE_OUTER_BOUND ( 'NONE', #137, .T. ) ;
#137 = EDGE_LOOP ( 'NONE', ( #6, #55 ) ) ;
#138 = CARTESIAN_POINT ( 'NONE',  ( 0.000000000000000000, 0.000000000000000000, 250.0000000000000000 ) ) ;
#139 = AXIS2_PLACEMENT_3D ( 'NONE', #56, #215, #182 ) ;
#140 = ORIENTED_EDGE ( 'NONE', *, *, #64, .F. ) ;
#141 = APPROVAL_PERSON_ORGANIZATION ( #230, #122, #29 ) ;
#142 = AXIS2_PLACEMENT_3D ( 'NONE', #7, #111, #54 ) ;
#143 = PERSON_AND_ORGANIZATION_ROLE ( 'creator' ) ;
#144 = CC_DESIGN_PERSON_AND_ORGANIZATION_ASSIGNMENT ( #93, #49, ( #131 ) ) ;
#145 = DIRECTION ( 'NONE',  ( 1.000000000000000000, 0.000000000000000000, 0.000000000000000000 ) ) ;
#146 = COORDINATED_UNIVERSAL_TIME_OFFSET ( 1, 0, .AHEAD. ) ;
#147 = PRODUCT_DEFINITION_SHAPE ( 'NONE', 'NONE',  #9 ) ;
#148 = PLANE ( 'NONE',  #198 ) ;
#149 = CC_DESIGN_APPROVAL ( #122, ( #9 ) ) ;
#150 = SHAPE_DEFINITION_REPRESENTATION ( #147, #92 ) ;
#151 = DIRECTION ( 'NONE',  ( -0.000000000000000000, -0.000000000000000000, -1.000000000000000000 ) ) ;
#152 = EDGE_CURVE ( 'NONE', #237, #96, #44, .T. ) ;
#153 = ORIENTED_EDGE ( 'NONE', *, *, #249, .T. ) ;
#154 = APPROVAL_DATE_TIME ( #90, #62 ) ;
#155 = CARTESIAN_POINT ( 'NONE',  ( -11.00000000000000000, 0.000000000000000000, 7.000000000000000000 ) ) ;
#156 = AXIS2_PLACEMENT_3D ( 'NONE', #28, #14, #228 ) ;
#157 = AXIS2_PLACEMENT_3D ( 'NONE', #250, #189, #145 ) ;
#158 = ORIENTED_EDGE ( 'NONE', *, *, #152, .F. ) ;
#159 = CYLINDRICAL_SURFACE ( 'NONE', #60, 7.000000000000000000 ) ;
#160 = EDGE_CURVE ( 'NONE', #96, #3, #40, .T. ) ;
#161 = DIRECTION ( 'NONE',  ( 1.000000000000000000, 0.000000000000000000, 0.000000000000000000 ) ) ;
#162 = VERTEX_POINT ( 'NONE', #79 ) ;
#163 = AXIS2_PLACEMENT_3D ( 'NONE', #211, #48, #168 ) ;
#164 = ADVANCED_FACE ( 'NONE', ( #94 ), #159, .T. ) ;
#165 = LOCAL_TIME ( 10, 16, 36.00000000000000000, #84 ) ;
#166 = CC_DESIGN_PERSON_AND_ORGANIZATION_ASSIGNMENT ( #27, #143, ( #9 ) ) ;
#167 = FACE_BOUND ( 'NONE', #16, .T. ) ;
#168 = DIRECTION ( 'NONE',  ( -1.000000000000000000, 0.000000000000000000, 0.000000000000000000 ) ) ;
#169 = LOCAL_TIME ( 10, 16, 36.00000000000000000, #146 ) ;
#170 = CARTESIAN_POINT ( 'NONE',  ( 11.00000000000000000, 1.347111479062088405E-15, 0.000000000000000000 ) ) ;
#171 = DIRECTION ( 'NONE',  ( -0.000000000000000000, -0.000000000000000000, -1.000000000000000000 ) ) ;
#172 = PERSON_AND_ORGANIZATION ( #114, #1 ) ;
#173 = DIRECTION ( 'NONE',  ( -0.000000000000000000, -0.000000000000000000, -1.000000000000000000 ) ) ;
#174 = AXIS2_PLACEMENT_3D ( 'NONE', #178, #173, #238 ) ;
#175 = CC_DESIGN_DATE_AND_TIME_ASSIGNMENT ( #101, #188, ( #9 ) ) ;
#176 = ORIENTED_EDGE ( 'NONE', *, *, #98, .T. ) ;
#177 = CYLINDRICAL_SURFACE ( 'NONE', #174, 7.000000000000000000 ) ;
#178 = CARTESIAN_POINT ( 'NONE',  ( 0.000000000000000000, 0.000000000000000000, 250.0000000000000000 ) ) ;
#179 = ADVANCED_FACE ( 'NONE', ( #195 ), #128, .F. ) ;
#180 = AXIS2_PLACEMENT_3D ( 'NONE', #194, #80, #197 ) ;
#181 = EDGE_LOOP ( 'NONE', ( #33, #35 ) ) ;
#182 = DIRECTION ( 'NONE',  ( 1.000000000000000000, 0.000000000000000000, 0.000000000000000000 ) ) ;
#183 = ORIENTED_EDGE ( 'NONE', *, *, #212, .T. ) ;
#184 = CARTESIAN_POINT ( 'NONE',  ( 0.000000000000000000, 0.000000000000000000, 0.000000000000000000 ) ) ;
#185 = ADVANCED_FACE ( 'NONE', ( #136 ), #74, .T. ) ;
#186 = CC_DESIGN_PERSON_AND_ORGANIZATION_ASSIGNMENT ( #172, #52, ( #21 ) ) ;
#187 = PERSON_AND_ORGANIZATION_ROLE ( 'design_owner' ) ;
#188 = DATE_TIME_ROLE ( 'creation_date' ) ;
#189 = DIRECTION ( 'NONE',  ( 0.000000000000000000, 0.000000000000000000, 1.000000000000000000 ) ) ;
#190 = CYLINDRICAL_SURFACE ( 'NONE', #163, 11.00000000000000000 ) ;
#191 = DIRECTION ( 'NONE',  ( 1.000000000000000000, 0.000000000000000000, -0.000000000000000000 ) ) ;
#192 = EDGE_CURVE ( 'NONE', #245, #214, #99, .T. ) ;
#193 = DATE_TIME_ROLE ( 'classification_date' ) ;
#194 = CARTESIAN_POINT ( 'NONE',  ( 0.000000000000000000, 0.000000000000000000, 250.0000000000000000 ) ) ;
#195 = FACE_OUTER_BOUND ( 'NONE', #181, .T. ) ;
#196 = EDGE_LOOP ( 'NONE', ( #140, #57, #153, #73 ) ) ;
#197 = DIRECTION ( 'NONE',  ( 1.000000000000000000, 0.000000000000000000, 0.000000000000000000 ) ) ;
#198 = AXIS2_PLACEMENT_3D ( 'NONE', #63, #67, #12 ) ;
#199 = ORIENTED_EDGE ( 'NONE', *, *, #82, .F. ) ;
#200 = MECHANICAL_CONTEXT ( 'NONE', #95, 'mechanical' ) ;
#201 = EDGE_CURVE ( 'NONE', #3, #85, #239, .T. ) ;
#202 = VECTOR ( 'NONE', #151, 1000.000000000000000 ) ;
#203 = EDGE_CURVE ( 'NONE', #96, #237, #124, .T. ) ;
#204 = APPROVAL_STATUS ( 'not_yet_approved' ) ;
#205 = EDGE_CURVE ( 'NONE', #214, #245, #216, .T. ) ;
#206 = APPROVAL_DATE_TIME ( #26, #122 ) ;
#207 = CARTESIAN_POINT ( 'NONE',  ( 0.000000000000000000, 0.000000000000000000, 7.000000000000000000 ) ) ;
#208 = CARTESIAN_POINT ( 'NONE',  ( 0.000000000000000000, 0.000000000000000000, 7.000000000000000000 ) ) ;
#209 = APPROVAL_DATE_TIME ( #225, #116 ) ;
#210 = LOCAL_TIME ( 10, 16, 36.00000000000000000, #87 ) ;
#211 = CARTESIAN_POINT ( 'NONE',  ( 0.000000000000000000, 0.000000000000000000, 7.000000000000000000 ) ) ;
#212 = EDGE_CURVE ( 'NONE', #237, #85, #32, .T. ) ;
#213 = DIRECTION ( 'NONE',  ( -1.000000000000000000, 0.000000000000000000, 0.000000000000000000 ) ) ;
#214 = VERTEX_POINT ( 'NONE', #86 ) ;
#215 = DIRECTION ( 'NONE',  ( 0.000000000000000000, 0.000000000000000000, 1.000000000000000000 ) ) ;
#216 = CIRCLE ( 'NONE', #180, 7.000000000000000000 ) ;
#217 = ORIENTED_EDGE ( 'NONE', *, *, #64, .T. ) ;
#218 = DIRECTION ( 'NONE',  ( 1.000000000000000000, 0.000000000000000000, -0.000000000000000000 ) ) ;
#219 = DIRECTION ( 'NONE',  ( -0.000000000000000000, -0.000000000000000000, -1.000000000000000000 ) ) ;
#220 = APPLICATION_PROTOCOL_DEFINITION ( 'international standard', 'config_control_design', 1994, #95 ) ;
#221 = EDGE_LOOP ( 'NONE', ( #104, #127, #113, #88 ) ) ;
#222 = CLOSED_SHELL ( 'NONE', ( #164, #11, #37, #76, #179, #246, #185 ) ) ;
#223 = AXIS2_PLACEMENT_3D ( 'NONE', #208, #17, #161 ) ;
#224 =( GEOMETRIC_REPRESENTATION_CONTEXT ( 3 ) GLOBAL_UNCERTAINTY_ASSIGNED_CONTEXT ( ( #112 ) ) GLOBAL_UNIT_ASSIGNED_CONTEXT ( ( #133, #20, #243 ) ) REPRESENTATION_CONTEXT ( 'NONE', 'WORKASPACE' ) );
#225 = DATE_AND_TIME ( #251, #165 ) ;
#226 = CARTESIAN_POINT ( 'NONE',  ( 0.000000000000000000, 0.000000000000000000, 7.000000000000000000 ) ) ;
#227 = CARTESIAN_POINT ( 'NONE',  ( 11.00000000000000000, 1.347111479062088405E-15, 7.000000000000000000 ) ) ;
#228 = DIRECTION ( 'NONE',  ( 1.000000000000000000, 0.000000000000000000, 0.000000000000000000 ) ) ;
#229 = MANIFOLD_SOLID_BREP ( 'Pøidat vysunutím3', #222 ) ;
#230 = PERSON_AND_ORGANIZATION ( #114, #1 ) ;
#231 = CIRCLE ( 'NONE', #41, 7.000000000000000000 ) ;
#232 = CALENDAR_DATE ( 2023, 13, 2 ) ;
#233 = CC_DESIGN_SECURITY_CLASSIFICATION ( #21, ( #131 ) ) ;
#234 = DIRECTION ( 'NONE',  ( -0.000000000000000000, -0.000000000000000000, -1.000000000000000000 ) ) ;
#235 = EDGE_LOOP ( 'NONE', ( #107, #158, #183, #176 ) ) ;
#236 = DIRECTION ( 'NONE',  ( 0.000000000000000000, 0.000000000000000000, 1.000000000000000000 ) ) ;
#237 = VERTEX_POINT ( 'NONE', #4 ) ;
#238 = DIRECTION ( 'NONE',  ( -1.000000000000000000, 0.000000000000000000, 0.000000000000000000 ) ) ;
#239 = CIRCLE ( 'NONE', #78, 11.00000000000000000 ) ;
#240 = LOCAL_TIME ( 10, 16, 36.00000000000000000, #118 ) ;
#241 = APPLICATION_CONTEXT ( 'configuration controlled 3d designs of mechanical parts and assemblies' ) ;
#242 = CALENDAR_DATE ( 2023, 13, 2 ) ;
#243 =( NAMED_UNIT ( * ) SI_UNIT ( $, .STERADIAN. ) SOLID_ANGLE_UNIT ( ) );
#244 = DIRECTION ( 'NONE',  ( -0.000000000000000000, -0.000000000000000000, -1.000000000000000000 ) ) ;
#245 = VERTEX_POINT ( 'NONE', #109 ) ;
#246 = ADVANCED_FACE ( 'NONE', ( #19 ), #177, .T. ) ;
#247 = AXIS2_PLACEMENT_3D ( 'NONE', #108, #51, #218 ) ;
#248 = DIRECTION ( 'NONE',  ( 0.000000000000000000, 0.000000000000000000, 1.000000000000000000 ) ) ;
#249 = EDGE_CURVE ( 'NONE', #214, #39, #50, .T. ) ;
#250 = CARTESIAN_POINT ( 'NONE',  ( 0.000000000000000000, 0.000000000000000000, 7.000000000000000000 ) ) ;
#251 = CALENDAR_DATE ( 2023, 13, 2 ) ;
#252 = VECTOR ( 'NONE', #219, 1000.000000000000000 ) ;
#253 = DIRECTION ( 'NONE',  ( 1.000000000000000000, 0.000000000000000000, 0.000000000000000000 ) ) ;
#254 = LINE ( 'NONE', #100, #117 ) ;
#255 = PERSON_AND_ORGANIZATION ( #114, #1 ) ;
ENDSEC;
END-ISO-10303-21;
