ISO-10303-21;
HEADER;
FILE_DESCRIPTION (( 'STEP AP203' ),
    '1' );
FILE_NAME ('3f5c.STEP',
    '2023-02-13T07:46:44',
    ( '' ),
    ( '' ),
    'SwSTEP 2.0',
    'SolidWorks 2019',
    '' );
FILE_SCHEMA (( 'CONFIG_CONTROL_DESIGN' ));
ENDSEC;

DATA;
#1 = DATE_AND_TIME ( #175, #156 ) ;
#2 = FACE_OUTER_BOUND ( 'NONE', #185, .T. ) ;
#3 = SECURITY_CLASSIFICATION_LEVEL ( 'unclassified' ) ;
#4 = APPLICATION_PROTOCOL_DEFINITION ( 'international standard', 'config_control_design', 1994, #226 ) ;
#5 = PERSON_AND_ORGANIZATION_ROLE ( 'creator' ) ;
#6 = DIRECTION ( 'NONE',  ( 1.000000000000000000, 0.000000000000000000, -0.000000000000000000 ) ) ;
#7 = VERTEX_POINT ( 'NONE', #18 ) ;
#8 = CC_DESIGN_PERSON_AND_ORGANIZATION_ASSIGNMENT ( #176, #5, ( #100 ) ) ;
#9 = FACE_OUTER_BOUND ( 'NONE', #155, .T. ) ;
#10 = AXIS2_PLACEMENT_3D ( 'NONE', #220, #217, #47 ) ;
#11 = ORIENTED_EDGE ( 'NONE', *, *, #183, .F. ) ;
#12 = AXIS2_PLACEMENT_3D ( 'NONE', #131, #214, #205 ) ;
#13 = VERTEX_POINT ( 'NONE', #211 ) ;
#14 = ORIENTED_EDGE ( 'NONE', *, *, #29, .T. ) ;
#15 = CARTESIAN_POINT ( 'NONE',  ( 0.000000000000000000, 0.000000000000000000, 10.00000000000000000 ) ) ;
#16 = DIRECTION ( 'NONE',  ( 0.000000000000000000, 0.000000000000000000, 1.000000000000000000 ) ) ;
#17 = CARTESIAN_POINT ( 'NONE',  ( 0.000000000000000000, 0.000000000000000000, 10.00000000000000000 ) ) ;
#18 = CARTESIAN_POINT ( 'NONE',  ( 16.00000000000000000, 1.959434878635765131E-15, 10.00000000000000000 ) ) ;
#19 = EDGE_CURVE ( 'NONE', #182, #202, #23, .T. ) ;
#20 = CARTESIAN_POINT ( 'NONE',  ( 0.000000000000000000, 0.000000000000000000, 10.00000000000000000 ) ) ;
#21 = PERSON_AND_ORGANIZATION ( #242, #102 ) ;
#22 = DIRECTION ( 'NONE',  ( 0.000000000000000000, 0.000000000000000000, 1.000000000000000000 ) ) ;
#23 = CIRCLE ( 'NONE', #69, 20.00000000000000000 ) ;
#24 = EDGE_CURVE ( 'NONE', #202, #182, #172, .T. ) ;
#25 = SHAPE_DEFINITION_REPRESENTATION ( #122, #151 ) ;
#26 = CC_DESIGN_PERSON_AND_ORGANIZATION_ASSIGNMENT ( #194, #171, ( #31 ) ) ;
#27 = CARTESIAN_POINT ( 'NONE',  ( 0.000000000000000000, 0.000000000000000000, 0.000000000000000000 ) ) ;
#28 = APPROVAL_ROLE ( '' ) ;
#29 = EDGE_CURVE ( 'NONE', #13, #201, #238, .T. ) ;
#30 = ORIENTED_EDGE ( 'NONE', *, *, #188, .T. ) ;
#31 = PRODUCT_DEFINITION_FORMATION_WITH_SPECIFIED_SOURCE ( 'LIBOVOLNÝ', '', #203, .NOT_KNOWN. ) ;
#32 = ORIENTED_EDGE ( 'NONE', *, *, #19, .T. ) ;
#33 = APPROVAL ( #66, 'NEURÈENÝ' ) ;
#34 = ORIENTED_EDGE ( 'NONE', *, *, #98, .F. ) ;
#35 = AXIS2_PLACEMENT_3D ( 'NONE', #20, #169, #170 ) ;
#36 = CARTESIAN_POINT ( 'NONE',  ( 0.000000000000000000, 0.000000000000000000, 10.00000000000000000 ) ) ;
#37 = CARTESIAN_POINT ( 'NONE',  ( 0.000000000000000000, 0.000000000000000000, 315.0000000000000000 ) ) ;
#38 = APPROVAL_DATE_TIME ( #208, #192 ) ;
#39 = DIRECTION ( 'NONE',  ( 1.000000000000000000, 0.000000000000000000, 0.000000000000000000 ) ) ;
#40 = CC_DESIGN_APPROVAL ( #33, ( #100 ) ) ;
#41 = CARTESIAN_POINT ( 'NONE',  ( -16.00000000000000000, 0.000000000000000000, 315.0000000000000000 ) ) ;
#42 = FACE_OUTER_BOUND ( 'NONE', #180, .T. ) ;
#43 = AXIS2_PLACEMENT_3D ( 'NONE', #15, #168, #54 ) ;
#44 =( NAMED_UNIT ( * ) SI_UNIT ( $, .STERADIAN. ) SOLID_ANGLE_UNIT ( ) );
#45 = LOCAL_TIME ( 8, 46, 44.00000000000000000, #196 ) ;
#46 = DIRECTION ( 'NONE',  ( 1.000000000000000000, 0.000000000000000000, 0.000000000000000000 ) ) ;
#47 = DIRECTION ( 'NONE',  ( -1.000000000000000000, 0.000000000000000000, 0.000000000000000000 ) ) ;
#48 = CC_DESIGN_APPROVAL ( #90, ( #252 ) ) ;
#49 = CARTESIAN_POINT ( 'NONE',  ( 0.000000000000000000, 0.000000000000000000, 315.0000000000000000 ) ) ;
#50 = ADVANCED_FACE ( 'NONE', ( #95 ), #254, .T. ) ;
#51 = ORIENTED_EDGE ( 'NONE', *, *, #119, .F. ) ;
#52 = CLOSED_SHELL ( 'NONE', ( #50, #212, #68, #153, #241, #80, #65 ) ) ;
#53 = ORIENTED_EDGE ( 'NONE', *, *, #234, .T. ) ;
#54 = DIRECTION ( 'NONE',  ( 1.000000000000000000, 0.000000000000000000, 0.000000000000000000 ) ) ;
#55 = CARTESIAN_POINT ( 'NONE',  ( 0.000000000000000000, 0.000000000000000000, 315.0000000000000000 ) ) ;
#56 = CARTESIAN_POINT ( 'NONE',  ( 0.000000000000000000, 0.000000000000000000, 0.000000000000000000 ) ) ;
#57 = DIRECTION ( 'NONE',  ( -0.000000000000000000, -0.000000000000000000, -1.000000000000000000 ) ) ;
#58 = CYLINDRICAL_SURFACE ( 'NONE', #12, 20.00000000000000000 ) ;
#59 = CIRCLE ( 'NONE', #199, 16.00000000000000000 ) ;
#60 = AXIS2_PLACEMENT_3D ( 'NONE', #36, #106, #73 ) ;
#61 = LINE ( 'NONE', #228, #224 ) ;
#62 = CARTESIAN_POINT ( 'NONE',  ( 0.000000000000000000, 0.000000000000000000, 10.00000000000000000 ) ) ;
#63 = PERSON_AND_ORGANIZATION ( #242, #102 ) ;
#64 = PERSON_AND_ORGANIZATION ( #242, #102 ) ;
#65 = ADVANCED_FACE ( 'NONE', ( #42 ), #111, .T. ) ;
#66 = APPROVAL_STATUS ( 'not_yet_approved' ) ;
#67 = AXIS2_PLACEMENT_3D ( 'NONE', #133, #57, #129 ) ;
#68 = ADVANCED_FACE ( 'NONE', ( #158 ), #178, .T. ) ;
#69 = AXIS2_PLACEMENT_3D ( 'NONE', #56, #78, #75 ) ;
#70 = COORDINATED_UNIVERSAL_TIME_OFFSET ( 1, 0, .AHEAD. ) ;
#71 = ORIENTED_EDGE ( 'NONE', *, *, #179, .F. ) ;
#72 = EDGE_LOOP ( 'NONE', ( #71, #227, #184, #32 ) ) ;
#73 = DIRECTION ( 'NONE',  ( 1.000000000000000000, 0.000000000000000000, 0.000000000000000000 ) ) ;
#74 = CIRCLE ( 'NONE', #60, 16.00000000000000000 ) ;
#75 = DIRECTION ( 'NONE',  ( 1.000000000000000000, 0.000000000000000000, 0.000000000000000000 ) ) ;
#76 = PERSON_AND_ORGANIZATION_ROLE ( 'creator' ) ;
#77 = FACE_OUTER_BOUND ( 'NONE', #206, .T. ) ;
#78 = DIRECTION ( 'NONE',  ( 0.000000000000000000, 0.000000000000000000, 1.000000000000000000 ) ) ;
#79 = DATE_TIME_ROLE ( 'classification_date' ) ;
#80 = ADVANCED_FACE ( 'NONE', ( #9 ), #118, .T. ) ;
#81 = DIRECTION ( 'NONE',  ( -0.000000000000000000, -0.000000000000000000, -1.000000000000000000 ) ) ;
#82 = CARTESIAN_POINT ( 'NONE',  ( 0.000000000000000000, 0.000000000000000000, 315.0000000000000000 ) ) ;
#83 = CALENDAR_DATE ( 2023, 13, 2 ) ;
#84 = DIRECTION ( 'NONE',  ( 0.000000000000000000, 0.000000000000000000, 1.000000000000000000 ) ) ;
#85 = COORDINATED_UNIVERSAL_TIME_OFFSET ( 1, 0, .AHEAD. ) ;
#86 = AXIS2_PLACEMENT_3D ( 'NONE', #62, #16, #231 ) ;
#87 = CC_DESIGN_PERSON_AND_ORGANIZATION_ASSIGNMENT ( #63, #134, ( #252 ) ) ;
#88 =( NAMED_UNIT ( * ) PLANE_ANGLE_UNIT ( ) SI_UNIT ( $, .RADIAN. ) );
#89 = CC_DESIGN_PERSON_AND_ORGANIZATION_ASSIGNMENT ( #21, #76, ( #31 ) ) ;
#90 = APPROVAL ( #213, 'NEURÈENÝ' ) ;
#91 = CIRCLE ( 'NONE', #141, 16.00000000000000000 ) ;
#92 = CALENDAR_DATE ( 2023, 13, 2 ) ;
#93 = LOCAL_TIME ( 8, 46, 44.00000000000000000, #70 ) ;
#94 = DIRECTION ( 'NONE',  ( 0.000000000000000000, 0.000000000000000000, 1.000000000000000000 ) ) ;
#95 = FACE_OUTER_BOUND ( 'NONE', #116, .T. ) ;
#96 = CARTESIAN_POINT ( 'NONE',  ( -20.00000000000000000, 0.000000000000000000, 0.000000000000000000 ) ) ;
#97 = PLANE ( 'NONE',  #121 ) ;
#98 = EDGE_CURVE ( 'NONE', #7, #144, #229, .T. ) ;
#99 = APPROVAL_PERSON_ORGANIZATION ( #246, #192, #28 ) ;
#100 = PRODUCT_DEFINITION ( 'NEZNÁMÝ', '', #31, #159 ) ;
#101 = VECTOR ( 'NONE', #232, 1000.000000000000000 ) ;
#102 = ORGANIZATION ( 'NEURÈENÝ', 'NEURÈENÝ', '' ) ;
#103 = ORIENTED_EDGE ( 'NONE', *, *, #115, .T. ) ;
#104 = EDGE_CURVE ( 'NONE', #250, #7, #173, .T. ) ;
#105 = ORIENTED_EDGE ( 'NONE', *, *, #115, .F. ) ;
#106 = DIRECTION ( 'NONE',  ( 0.000000000000000000, 0.000000000000000000, 1.000000000000000000 ) ) ;
#107 = APPROVAL_ROLE ( '' ) ;
#108 = CARTESIAN_POINT ( 'NONE',  ( 20.00000000000000000, 2.449293598294706513E-15, 10.00000000000000000 ) ) ;
#109 = AXIS2_PLACEMENT_3D ( 'NONE', #193, #22, #230 ) ;
#110 = FACE_BOUND ( 'NONE', #204, .T. ) ;
#111 = PLANE ( 'NONE',  #221 ) ;
#112 = PLANE ( 'NONE',  #109 ) ;
#113 = PERSON_AND_ORGANIZATION ( #242, #102 ) ;
#114 = VECTOR ( 'NONE', #130, 1000.000000000000000 ) ;
#115 = EDGE_CURVE ( 'NONE', #147, #250, #59, .T. ) ;
#116 = EDGE_LOOP ( 'NONE', ( #51, #136, #222, #148 ) ) ;
#117 = DIRECTION ( 'NONE',  ( 0.000000000000000000, 0.000000000000000000, 1.000000000000000000 ) ) ;
#118 = CYLINDRICAL_SURFACE ( 'NONE', #165, 16.00000000000000000 ) ;
#119 = EDGE_CURVE ( 'NONE', #250, #147, #91, .T. ) ;
#120 = DIRECTION ( 'NONE',  ( -0.000000000000000000, -0.000000000000000000, -1.000000000000000000 ) ) ;
#121 = AXIS2_PLACEMENT_3D ( 'NONE', #17, #84, #236 ) ;
#122 = PRODUCT_DEFINITION_SHAPE ( 'NONE', 'NONE',  #100 ) ;
#123 = ORIENTED_EDGE ( 'NONE', *, *, #104, .F. ) ;
#124 = ORIENTED_EDGE ( 'NONE', *, *, #119, .T. ) ;
#125 = EDGE_CURVE ( 'NONE', #147, #144, #235, .T. ) ;
#126 = CARTESIAN_POINT ( 'NONE',  ( -20.00000000000000000, 0.000000000000000000, 10.00000000000000000 ) ) ;
#127 = CARTESIAN_POINT ( 'NONE',  ( 16.00000000000000000, 1.959434878635765131E-15, 315.0000000000000000 ) ) ;
#128 = DIRECTION ( 'NONE',  ( 0.000000000000000000, 0.000000000000000000, 1.000000000000000000 ) ) ;
#129 = DIRECTION ( 'NONE',  ( -1.000000000000000000, 0.000000000000000000, 0.000000000000000000 ) ) ;
#130 = DIRECTION ( 'NONE',  ( -0.000000000000000000, -0.000000000000000000, -1.000000000000000000 ) ) ;
#131 = CARTESIAN_POINT ( 'NONE',  ( 0.000000000000000000, 0.000000000000000000, 10.00000000000000000 ) ) ;
#132 = MECHANICAL_CONTEXT ( 'NONE', #223, 'mechanical' ) ;
#133 = CARTESIAN_POINT ( 'NONE',  ( 0.000000000000000000, 0.000000000000000000, 315.0000000000000000 ) ) ;
#134 = PERSON_AND_ORGANIZATION_ROLE ( 'classification_officer' ) ;
#135 = APPROVAL_ROLE ( '' ) ;
#136 = ORIENTED_EDGE ( 'NONE', *, *, #104, .T. ) ;
#137 = CC_DESIGN_SECURITY_CLASSIFICATION ( #252, ( #31 ) ) ;
#138 = PERSON_AND_ORGANIZATION_ROLE ( 'design_owner' ) ;
#139 = MANIFOLD_SOLID_BREP ( 'Pøidat vysunutím3', #52 ) ;
#140 = ORIENTED_EDGE ( 'NONE', *, *, #179, .T. ) ;
#141 = AXIS2_PLACEMENT_3D ( 'NONE', #37, #94, #39 ) ;
#142 = EDGE_LOOP ( 'NONE', ( #247, #163 ) ) ;
#143 = CC_DESIGN_DATE_AND_TIME_ASSIGNMENT ( #1, #79, ( #252 ) ) ;
#144 = VERTEX_POINT ( 'NONE', #167 ) ;
#145 =( GEOMETRIC_REPRESENTATION_CONTEXT ( 3 ) GLOBAL_UNCERTAINTY_ASSIGNED_CONTEXT ( ( #160 ) ) GLOBAL_UNIT_ASSIGNED_CONTEXT ( ( #187, #88, #44 ) ) REPRESENTATION_CONTEXT ( 'NONE', 'WORKASPACE' ) );
#146 = ORIENTED_EDGE ( 'NONE', *, *, #125, .T. ) ;
#147 = VERTEX_POINT ( 'NONE', #251 ) ;
#148 = ORIENTED_EDGE ( 'NONE', *, *, #125, .F. ) ;
#149 = FACE_OUTER_BOUND ( 'NONE', #142, .T. ) ;
#150 = LOCAL_TIME ( 8, 46, 44.00000000000000000, #218 ) ;
#151 = ADVANCED_BREP_SHAPE_REPRESENTATION ( '3f5c', ( #139, #174 ), #145 ) ;
#152 = PERSON_AND_ORGANIZATION ( #242, #102 ) ;
#153 = ADVANCED_FACE ( 'NONE', ( #110, #2 ), #97, .T. ) ;
#154 = CC_DESIGN_APPROVAL ( #192, ( #31 ) ) ;
#155 = EDGE_LOOP ( 'NONE', ( #123, #105, #146, #53 ) ) ;
#156 = LOCAL_TIME ( 8, 46, 44.00000000000000000, #215 ) ;
#157 = CALENDAR_DATE ( 2023, 13, 2 ) ;
#158 = FACE_OUTER_BOUND ( 'NONE', #72, .T. ) ;
#159 = DESIGN_CONTEXT ( 'detailed design', #226, 'design' ) ;
#160 = UNCERTAINTY_MEASURE_WITH_UNIT (LENGTH_MEASURE( 1.000000000000000082E-05 ), #187, 'distance_accuracy_value', 'NONE');
#161 = DATE_AND_TIME ( #243, #177 ) ;
#162 = ORIENTED_EDGE ( 'NONE', *, *, #234, .F. ) ;
#163 = ORIENTED_EDGE ( 'NONE', *, *, #24, .F. ) ;
#164 = DATE_TIME_ROLE ( 'creation_date' ) ;
#165 = AXIS2_PLACEMENT_3D ( 'NONE', #49, #120, #225 ) ;
#166 = CC_DESIGN_PERSON_AND_ORGANIZATION_ASSIGNMENT ( #64, #138, ( #203 ) ) ;
#167 = CARTESIAN_POINT ( 'NONE',  ( -16.00000000000000000, 0.000000000000000000, 10.00000000000000000 ) ) ;
#168 = DIRECTION ( 'NONE',  ( 0.000000000000000000, 0.000000000000000000, 1.000000000000000000 ) ) ;
#169 = DIRECTION ( 'NONE',  ( 0.000000000000000000, 0.000000000000000000, 1.000000000000000000 ) ) ;
#170 = DIRECTION ( 'NONE',  ( 1.000000000000000000, 0.000000000000000000, 0.000000000000000000 ) ) ;
#171 = PERSON_AND_ORGANIZATION_ROLE ( 'design_supplier' ) ;
#172 = CIRCLE ( 'NONE', #195, 20.00000000000000000 ) ;
#173 = LINE ( 'NONE', #209, #101 ) ;
#174 = AXIS2_PLACEMENT_3D ( 'NONE', #27, #198, #46 ) ;
#175 = CALENDAR_DATE ( 2023, 13, 2 ) ;
#176 = PERSON_AND_ORGANIZATION ( #242, #102 ) ;
#177 = LOCAL_TIME ( 8, 46, 44.00000000000000000, #85 ) ;
#178 = CYLINDRICAL_SURFACE ( 'NONE', #10, 20.00000000000000000 ) ;
#179 = EDGE_CURVE ( 'NONE', #13, #202, #255, .T. ) ;
#180 = EDGE_LOOP ( 'NONE', ( #103, #124 ) ) ;
#181 = VECTOR ( 'NONE', #191, 1000.000000000000000 ) ;
#182 = VERTEX_POINT ( 'NONE', #96 ) ;
#183 = EDGE_CURVE ( 'NONE', #201, #182, #61, .T. ) ;
#184 = ORIENTED_EDGE ( 'NONE', *, *, #183, .T. ) ;
#185 = EDGE_LOOP ( 'NONE', ( #30, #14 ) ) ;
#186 = DIRECTION ( 'NONE',  ( 1.000000000000000000, 0.000000000000000000, 0.000000000000000000 ) ) ;
#187 =( LENGTH_UNIT ( ) NAMED_UNIT ( * ) SI_UNIT ( .MILLI., .METRE. ) );
#188 = EDGE_CURVE ( 'NONE', #201, #13, #219, .T. ) ;
#189 = CARTESIAN_POINT ( 'NONE',  ( 0.000000000000000000, 0.000000000000000000, 0.000000000000000000 ) ) ;
#190 = DIRECTION ( 'NONE',  ( 1.000000000000000000, 0.000000000000000000, 0.000000000000000000 ) ) ;
#191 = DIRECTION ( 'NONE',  ( -0.000000000000000000, -0.000000000000000000, -1.000000000000000000 ) ) ;
#192 = APPROVAL ( #200, 'NEURÈENÝ' ) ;
#193 = CARTESIAN_POINT ( 'NONE',  ( 0.000000000000000000, 0.000000000000000000, 0.000000000000000000 ) ) ;
#194 = PERSON_AND_ORGANIZATION ( #242, #102 ) ;
#195 = AXIS2_PLACEMENT_3D ( 'NONE', #189, #237, #186 ) ;
#196 = COORDINATED_UNIVERSAL_TIME_OFFSET ( 1, 0, .AHEAD. ) ;
#197 = APPROVAL_DATE_TIME ( #239, #33 ) ;
#198 = DIRECTION ( 'NONE',  ( 0.000000000000000000, 0.000000000000000000, 1.000000000000000000 ) ) ;
#199 = AXIS2_PLACEMENT_3D ( 'NONE', #55, #128, #190 ) ;
#200 = APPROVAL_STATUS ( 'not_yet_approved' ) ;
#201 = VERTEX_POINT ( 'NONE', #126 ) ;
#202 = VERTEX_POINT ( 'NONE', #253 ) ;
#203 = PRODUCT ( '3f5c', '3f5c', '', ( #132 ) ) ;
#204 = EDGE_LOOP ( 'NONE', ( #162, #34 ) ) ;
#205 = DIRECTION ( 'NONE',  ( -1.000000000000000000, 0.000000000000000000, 0.000000000000000000 ) ) ;
#206 = EDGE_LOOP ( 'NONE', ( #249, #140, #244, #11 ) ) ;
#207 = DATE_AND_TIME ( #83, #45 ) ;
#208 = DATE_AND_TIME ( #92, #93 ) ;
#209 = CARTESIAN_POINT ( 'NONE',  ( 16.00000000000000000, 1.959434878635765131E-15, 315.0000000000000000 ) ) ;
#210 = APPROVAL_PERSON_ORGANIZATION ( #113, #33, #135 ) ;
#211 = CARTESIAN_POINT ( 'NONE',  ( 20.00000000000000000, 2.449293598294706513E-15, 10.00000000000000000 ) ) ;
#212 = ADVANCED_FACE ( 'NONE', ( #77 ), #58, .T. ) ;
#213 = APPROVAL_STATUS ( 'not_yet_approved' ) ;
#214 = DIRECTION ( 'NONE',  ( -0.000000000000000000, -0.000000000000000000, -1.000000000000000000 ) ) ;
#215 = COORDINATED_UNIVERSAL_TIME_OFFSET ( 1, 0, .AHEAD. ) ;
#216 = CC_DESIGN_DATE_AND_TIME_ASSIGNMENT ( #161, #164, ( #100 ) ) ;
#217 = DIRECTION ( 'NONE',  ( -0.000000000000000000, -0.000000000000000000, -1.000000000000000000 ) ) ;
#218 = COORDINATED_UNIVERSAL_TIME_OFFSET ( 1, 0, .AHEAD. ) ;
#219 = CIRCLE ( 'NONE', #35, 20.00000000000000000 ) ;
#220 = CARTESIAN_POINT ( 'NONE',  ( 0.000000000000000000, 0.000000000000000000, 10.00000000000000000 ) ) ;
#221 = AXIS2_PLACEMENT_3D ( 'NONE', #82, #117, #6 ) ;
#222 = ORIENTED_EDGE ( 'NONE', *, *, #98, .T. ) ;
#223 = APPLICATION_CONTEXT ( 'configuration controlled 3d designs of mechanical parts and assemblies' ) ;
#224 = VECTOR ( 'NONE', #81, 1000.000000000000000 ) ;
#225 = DIRECTION ( 'NONE',  ( -1.000000000000000000, 0.000000000000000000, 0.000000000000000000 ) ) ;
#226 = APPLICATION_CONTEXT ( 'configuration controlled 3d designs of mechanical parts and assemblies' ) ;
#227 = ORIENTED_EDGE ( 'NONE', *, *, #188, .F. ) ;
#228 = CARTESIAN_POINT ( 'NONE',  ( -20.00000000000000000, 0.000000000000000000, 10.00000000000000000 ) ) ;
#229 = CIRCLE ( 'NONE', #43, 16.00000000000000000 ) ;
#230 = DIRECTION ( 'NONE',  ( 1.000000000000000000, 0.000000000000000000, -0.000000000000000000 ) ) ;
#231 = DIRECTION ( 'NONE',  ( 1.000000000000000000, 0.000000000000000000, 0.000000000000000000 ) ) ;
#232 = DIRECTION ( 'NONE',  ( -0.000000000000000000, -0.000000000000000000, -1.000000000000000000 ) ) ;
#233 = APPROVAL_DATE_TIME ( #207, #90 ) ;
#234 = EDGE_CURVE ( 'NONE', #144, #7, #74, .T. ) ;
#235 = LINE ( 'NONE', #41, #114 ) ;
#236 = DIRECTION ( 'NONE',  ( 1.000000000000000000, 0.000000000000000000, -0.000000000000000000 ) ) ;
#237 = DIRECTION ( 'NONE',  ( 0.000000000000000000, 0.000000000000000000, 1.000000000000000000 ) ) ;
#238 = CIRCLE ( 'NONE', #86, 20.00000000000000000 ) ;
#239 = DATE_AND_TIME ( #157, #150 ) ;
#240 = APPLICATION_PROTOCOL_DEFINITION ( 'international standard', 'config_control_design', 1994, #223 ) ;
#241 = ADVANCED_FACE ( 'NONE', ( #149 ), #112, .F. ) ;
#242 = PERSON ( 'NEURÈENÝ', 'NEURÈENÝ', 'NEURÈENÝ', ('NEURÈENÝ'), ('NEURÈENÝ'), ('NEURÈENÝ') ) ;
#243 = CALENDAR_DATE ( 2023, 13, 2 ) ;
#244 = ORIENTED_EDGE ( 'NONE', *, *, #24, .T. ) ;
#245 = PRODUCT_RELATED_PRODUCT_CATEGORY ( 'detail', '', ( #203 ) ) ;
#246 = PERSON_AND_ORGANIZATION ( #242, #102 ) ;
#247 = ORIENTED_EDGE ( 'NONE', *, *, #19, .F. ) ;
#248 = APPROVAL_PERSON_ORGANIZATION ( #152, #90, #107 ) ;
#249 = ORIENTED_EDGE ( 'NONE', *, *, #29, .F. ) ;
#250 = VERTEX_POINT ( 'NONE', #127 ) ;
#251 = CARTESIAN_POINT ( 'NONE',  ( -16.00000000000000000, 0.000000000000000000, 315.0000000000000000 ) ) ;
#252 = SECURITY_CLASSIFICATION ( '', '', #3 ) ;
#253 = CARTESIAN_POINT ( 'NONE',  ( 20.00000000000000000, 2.449293598294706513E-15, 0.000000000000000000 ) ) ;
#254 = CYLINDRICAL_SURFACE ( 'NONE', #67, 16.00000000000000000 ) ;
#255 = LINE ( 'NONE', #108, #181 ) ;
ENDSEC;
END-ISO-10303-21;
