ISO-10303-21;
HEADER;
FILE_DESCRIPTION (( 'STEP AP203' ),
    '1' );
FILE_NAME ('3362.STEP',
    '2023-02-13T10:16:14',
    ( '' ),
    ( '' ),
    'SwSTEP 2.0',
    'SolidWorks 2019',
    '' );
FILE_SCHEMA (( 'CONFIG_CONTROL_DESIGN' ));
ENDSEC;

DATA;
#1 = FACE_OUTER_BOUND ( 'NONE', #63, .T. ) ;
#2 = CC_DESIGN_PERSON_AND_ORGANIZATION_ASSIGNMENT ( #158, #196, ( #107 ) ) ;
#3 = CYLINDRICAL_SURFACE ( 'NONE', #42, 8.000000000000000000 ) ;
#4 = ORIENTED_EDGE ( 'NONE', *, *, #255, .T. ) ;
#5 = CARTESIAN_POINT ( 'NONE',  ( -8.000000000000000000, 0.000000000000000000, 5.000000000000000000 ) ) ;
#6 = DIRECTION ( 'NONE',  ( -0.000000000000000000, -0.000000000000000000, -1.000000000000000000 ) ) ;
#7 = EDGE_CURVE ( 'NONE', #116, #240, #102, .T. ) ;
#8 = DIRECTION ( 'NONE',  ( -0.000000000000000000, -0.000000000000000000, -1.000000000000000000 ) ) ;
#9 = LOCAL_TIME ( 11, 16, 14.00000000000000000, #252 ) ;
#10 = DIRECTION ( 'NONE',  ( -0.000000000000000000, -0.000000000000000000, -1.000000000000000000 ) ) ;
#11 = APPROVAL_DATE_TIME ( #194, #25 ) ;
#12 = APPROVAL_ROLE ( '' ) ;
#13 = APPROVAL_STATUS ( 'not_yet_approved' ) ;
#14 = APPLICATION_PROTOCOL_DEFINITION ( 'international standard', 'config_control_design', 1994, #35 ) ;
#15 = AXIS2_PLACEMENT_3D ( 'NONE', #85, #144, #161 ) ;
#16 = AXIS2_PLACEMENT_3D ( 'NONE', #224, #249, #70 ) ;
#17 = DIRECTION ( 'NONE',  ( 1.000000000000000000, 0.000000000000000000, 0.000000000000000000 ) ) ;
#18 = FACE_OUTER_BOUND ( 'NONE', #139, .T. ) ;
#19 = ORIENTED_EDGE ( 'NONE', *, *, #183, .T. ) ;
#20 = ORIENTED_EDGE ( 'NONE', *, *, #255, .F. ) ;
#21 = PRODUCT_DEFINITION_FORMATION_WITH_SPECIFIED_SOURCE ( 'LIBOVOLNÝ', '', #52, .NOT_KNOWN. ) ;
#22 = ORIENTED_EDGE ( 'NONE', *, *, #48, .T. ) ;
#23 =( NAMED_UNIT ( * ) SI_UNIT ( $, .STERADIAN. ) SOLID_ANGLE_UNIT ( ) );
#24 = ORIENTED_EDGE ( 'NONE', *, *, #7, .F. ) ;
#25 = APPROVAL ( #55, 'NEURÈENÝ' ) ;
#26 = APPLICATION_PROTOCOL_DEFINITION ( 'international standard', 'config_control_design', 1994, #140 ) ;
#27 = DIRECTION ( 'NONE',  ( -1.000000000000000000, 0.000000000000000000, 0.000000000000000000 ) ) ;
#28 = CARTESIAN_POINT ( 'NONE',  ( 0.000000000000000000, 0.000000000000000000, 125.0000000000000000 ) ) ;
#29 = VECTOR ( 'NONE', #108, 1000.000000000000000 ) ;
#30 =( LENGTH_UNIT ( ) NAMED_UNIT ( * ) SI_UNIT ( .MILLI., .METRE. ) );
#31 = APPROVAL_ROLE ( '' ) ;
#32 = PERSON_AND_ORGANIZATION ( #128, #145 ) ;
#33 = CARTESIAN_POINT ( 'NONE',  ( 8.000000000000000000, 9.797174393178825657E-16, 5.000000000000000000 ) ) ;
#34 = CALENDAR_DATE ( 2023, 13, 2 ) ;
#35 = APPLICATION_CONTEXT ( 'configuration controlled 3d designs of mechanical parts and assemblies' ) ;
#36 = ADVANCED_FACE ( 'NONE', ( #82, #179 ), #99, .T. ) ;
#37 = ORIENTED_EDGE ( 'NONE', *, *, #91, .T. ) ;
#38 = CIRCLE ( 'NONE', #227, 5.000000000000000000 ) ;
#39 = AXIS2_PLACEMENT_3D ( 'NONE', #163, #239, #44 ) ;
#40 = DIRECTION ( 'NONE',  ( 0.000000000000000000, 0.000000000000000000, 1.000000000000000000 ) ) ;
#41 = ORIENTED_EDGE ( 'NONE', *, *, #54, .F. ) ;
#42 = AXIS2_PLACEMENT_3D ( 'NONE', #117, #6, #182 ) ;
#43 = ADVANCED_FACE ( 'NONE', ( #18 ), #3, .T. ) ;
#44 = DIRECTION ( 'NONE',  ( 1.000000000000000000, 0.000000000000000000, 0.000000000000000000 ) ) ;
#45 = DIRECTION ( 'NONE',  ( 1.000000000000000000, 0.000000000000000000, -0.000000000000000000 ) ) ;
#46 = CARTESIAN_POINT ( 'NONE',  ( -8.000000000000000000, 0.000000000000000000, 0.000000000000000000 ) ) ;
#47 = ORIENTED_EDGE ( 'NONE', *, *, #185, .F. ) ;
#48 = EDGE_CURVE ( 'NONE', #62, #225, #86, .T. ) ;
#49 = DIRECTION ( 'NONE',  ( 1.000000000000000000, 0.000000000000000000, 0.000000000000000000 ) ) ;
#50 = CIRCLE ( 'NONE', #98, 8.000000000000000000 ) ;
#51 = CARTESIAN_POINT ( 'NONE',  ( 0.000000000000000000, 0.000000000000000000, 125.0000000000000000 ) ) ;
#52 = PRODUCT ( '3362', '3362', '', ( #174 ) ) ;
#53 = ADVANCED_FACE ( 'NONE', ( #164 ), #242, .T. ) ;
#54 = EDGE_CURVE ( 'NONE', #116, #62, #237, .T. ) ;
#55 = APPROVAL_STATUS ( 'not_yet_approved' ) ;
#56 = DIRECTION ( 'NONE',  ( 0.000000000000000000, 0.000000000000000000, 1.000000000000000000 ) ) ;
#57 = PERSON_AND_ORGANIZATION_ROLE ( 'creator' ) ;
#58 = DESIGN_CONTEXT ( 'detailed design', #35, 'design' ) ;
#59 = CARTESIAN_POINT ( 'NONE',  ( 0.000000000000000000, 0.000000000000000000, 125.0000000000000000 ) ) ;
#60 = CARTESIAN_POINT ( 'NONE',  ( 8.000000000000000000, 9.797174393178825657E-16, 5.000000000000000000 ) ) ;
#61 = APPROVAL_PERSON_ORGANIZATION ( #32, #216, #172 ) ;
#62 = VERTEX_POINT ( 'NONE', #5 ) ;
#63 = EDGE_LOOP ( 'NONE', ( #24, #47, #22, #19 ) ) ;
#64 = CARTESIAN_POINT ( 'NONE',  ( 0.000000000000000000, 0.000000000000000000, 125.0000000000000000 ) ) ;
#65 = FACE_OUTER_BOUND ( 'NONE', #66, .T. ) ;
#66 = EDGE_LOOP ( 'NONE', ( #20, #104, #205, #138 ) ) ;
#67 = EDGE_CURVE ( 'NONE', #147, #115, #125, .T. ) ;
#68 =( NAMED_UNIT ( * ) PLANE_ANGLE_UNIT ( ) SI_UNIT ( $, .RADIAN. ) );
#69 = AXIS2_PLACEMENT_3D ( 'NONE', #234, #56, #97 ) ;
#70 = DIRECTION ( 'NONE',  ( 1.000000000000000000, 0.000000000000000000, 0.000000000000000000 ) ) ;
#71 = EDGE_CURVE ( 'NONE', #115, #147, #38, .T. ) ;
#72 = PRODUCT_RELATED_PRODUCT_CATEGORY ( 'detail', '', ( #52 ) ) ;
#73 = DIRECTION ( 'NONE',  ( 1.000000000000000000, 0.000000000000000000, 0.000000000000000000 ) ) ;
#74 = CIRCLE ( 'NONE', #180, 5.000000000000000000 ) ;
#75 = APPROVAL_PERSON_ORGANIZATION ( #230, #25, #31 ) ;
#76 = CALENDAR_DATE ( 2023, 13, 2 ) ;
#77 = FACE_OUTER_BOUND ( 'NONE', #188, .T. ) ;
#78 = CALENDAR_DATE ( 2023, 13, 2 ) ;
#79 = DIRECTION ( 'NONE',  ( -0.000000000000000000, -0.000000000000000000, -1.000000000000000000 ) ) ;
#80 = APPROVAL_DATE_TIME ( #156, #216 ) ;
#81 = CARTESIAN_POINT ( 'NONE',  ( -8.000000000000000000, 0.000000000000000000, 5.000000000000000000 ) ) ;
#82 = FACE_BOUND ( 'NONE', #201, .T. ) ;
#83 = VECTOR ( 'NONE', #135, 1000.000000000000000 ) ;
#84 = ORIENTED_EDGE ( 'NONE', *, *, #183, .F. ) ;
#85 = CARTESIAN_POINT ( 'NONE',  ( 0.000000000000000000, 0.000000000000000000, 5.000000000000000000 ) ) ;
#86 = LINE ( 'NONE', #81, #83 ) ;
#87 = DIRECTION ( 'NONE',  ( 0.000000000000000000, 0.000000000000000000, 1.000000000000000000 ) ) ;
#88 = ADVANCED_FACE ( 'NONE', ( #106 ), #187, .F. ) ;
#89 = CYLINDRICAL_SURFACE ( 'NONE', #162, 8.000000000000000000 ) ;
#90 = DIRECTION ( 'NONE',  ( -0.000000000000000000, -0.000000000000000000, -1.000000000000000000 ) ) ;
#91 = EDGE_CURVE ( 'NONE', #141, #204, #74, .T. ) ;
#92 = CC_DESIGN_APPROVAL ( #25, ( #21 ) ) ;
#93 = SECURITY_CLASSIFICATION_LEVEL ( 'unclassified' ) ;
#94 = DATE_TIME_ROLE ( 'creation_date' ) ;
#95 = APPROVAL ( #233, 'NEURÈENÝ' ) ;
#96 = CARTESIAN_POINT ( 'NONE',  ( -5.000000000000000000, 0.000000000000000000, 125.0000000000000000 ) ) ;
#97 = DIRECTION ( 'NONE',  ( 1.000000000000000000, 0.000000000000000000, 0.000000000000000000 ) ) ;
#98 = AXIS2_PLACEMENT_3D ( 'NONE', #146, #246, #169 ) ;
#99 = PLANE ( 'NONE',  #207 ) ;
#100 = ORIENTED_EDGE ( 'NONE', *, *, #130, .F. ) ;
#101 = EDGE_LOOP ( 'NONE', ( #37, #223 ) ) ;
#102 = LINE ( 'NONE', #60, #159 ) ;
#103 = DIRECTION ( 'NONE',  ( -1.000000000000000000, 0.000000000000000000, 0.000000000000000000 ) ) ;
#104 = ORIENTED_EDGE ( 'NONE', *, *, #91, .F. ) ;
#105 = CARTESIAN_POINT ( 'NONE',  ( 5.000000000000000000, 6.123233995736766282E-16, 125.0000000000000000 ) ) ;
#106 = FACE_OUTER_BOUND ( 'NONE', #160, .T. ) ;
#107 = PRODUCT_DEFINITION ( 'NEZNÁMÝ', '', #21, #58 ) ;
#108 = DIRECTION ( 'NONE',  ( -0.000000000000000000, -0.000000000000000000, -1.000000000000000000 ) ) ;
#109 = LOCAL_TIME ( 11, 16, 14.00000000000000000, #170 ) ;
#110 = COORDINATED_UNIVERSAL_TIME_OFFSET ( 1, 0, .AHEAD. ) ;
#111 = PERSON_AND_ORGANIZATION_ROLE ( 'design_owner' ) ;
#112 = CALENDAR_DATE ( 2023, 13, 2 ) ;
#113 = CARTESIAN_POINT ( 'NONE',  ( -5.000000000000000000, 0.000000000000000000, 125.0000000000000000 ) ) ;
#114 = CC_DESIGN_DATE_AND_TIME_ASSIGNMENT ( #232, #213, ( #244 ) ) ;
#115 = VERTEX_POINT ( 'NONE', #212 ) ;
#116 = VERTEX_POINT ( 'NONE', #33 ) ;
#117 = CARTESIAN_POINT ( 'NONE',  ( 0.000000000000000000, 0.000000000000000000, 5.000000000000000000 ) ) ;
#118 = DIRECTION ( 'NONE',  ( 1.000000000000000000, 0.000000000000000000, -0.000000000000000000 ) ) ;
#119 = AXIS2_PLACEMENT_3D ( 'NONE', #226, #209, #49 ) ;
#120 = CARTESIAN_POINT ( 'NONE',  ( 8.000000000000000000, 9.797174393178825657E-16, 0.000000000000000000 ) ) ;
#121 = DIRECTION ( 'NONE',  ( 0.000000000000000000, 0.000000000000000000, 1.000000000000000000 ) ) ;
#122 = PRODUCT_DEFINITION_SHAPE ( 'NONE', 'NONE',  #107 ) ;
#123 = CARTESIAN_POINT ( 'NONE',  ( 5.000000000000000000, 6.123233995736766282E-16, 125.0000000000000000 ) ) ;
#124 = ORIENTED_EDGE ( 'NONE', *, *, #7, .T. ) ;
#125 = CIRCLE ( 'NONE', #39, 5.000000000000000000 ) ;
#126 = DIRECTION ( 'NONE',  ( -1.000000000000000000, 0.000000000000000000, 0.000000000000000000 ) ) ;
#127 = EDGE_CURVE ( 'NONE', #240, #225, #217, .T. ) ;
#128 = PERSON ( 'NEURÈENÝ', 'NEURÈENÝ', 'NEURÈENÝ', ('NEURÈENÝ'), ('NEURÈENÝ'), ('NEURÈENÝ') ) ;
#129 = PERSON_AND_ORGANIZATION ( #128, #145 ) ;
#130 = EDGE_CURVE ( 'NONE', #141, #115, #254, .T. ) ;
#131 = CIRCLE ( 'NONE', #16, 8.000000000000000000 ) ;
#132 = CC_DESIGN_APPROVAL ( #95, ( #107 ) ) ;
#133 = COORDINATED_UNIVERSAL_TIME_OFFSET ( 1, 0, .AHEAD. ) ;
#134 = CC_DESIGN_DATE_AND_TIME_ASSIGNMENT ( #153, #94, ( #107 ) ) ;
#135 = DIRECTION ( 'NONE',  ( -0.000000000000000000, -0.000000000000000000, -1.000000000000000000 ) ) ;
#136 = CARTESIAN_POINT ( 'NONE',  ( 5.000000000000000000, 6.123233995736766282E-16, 5.000000000000000000 ) ) ;
#137 = DIRECTION ( 'NONE',  ( 1.000000000000000000, 0.000000000000000000, -0.000000000000000000 ) ) ;
#138 = ORIENTED_EDGE ( 'NONE', *, *, #71, .T. ) ;
#139 = EDGE_LOOP ( 'NONE', ( #41, #124, #220, #219 ) ) ;
#140 = APPLICATION_CONTEXT ( 'configuration controlled 3d designs of mechanical parts and assemblies' ) ;
#141 = VERTEX_POINT ( 'NONE', #96 ) ;
#142 = ADVANCED_FACE ( 'NONE', ( #77 ), #157, .T. ) ;
#143 = ADVANCED_BREP_SHAPE_REPRESENTATION ( '3362', ( #210, #119 ), #200 ) ;
#144 = DIRECTION ( 'NONE',  ( 0.000000000000000000, 0.000000000000000000, 1.000000000000000000 ) ) ;
#145 = ORGANIZATION ( 'NEURÈENÝ', 'NEURÈENÝ', '' ) ;
#146 = CARTESIAN_POINT ( 'NONE',  ( 0.000000000000000000, 0.000000000000000000, 0.000000000000000000 ) ) ;
#147 = VERTEX_POINT ( 'NONE', #136 ) ;
#148 = CLOSED_SHELL ( 'NONE', ( #142, #43, #149, #36, #88, #251, #53 ) ) ;
#149 = ADVANCED_FACE ( 'NONE', ( #1 ), #89, .T. ) ;
#150 = CARTESIAN_POINT ( 'NONE',  ( 0.000000000000000000, 0.000000000000000000, 0.000000000000000000 ) ) ;
#151 = CARTESIAN_POINT ( 'NONE',  ( 0.000000000000000000, 0.000000000000000000, 125.0000000000000000 ) ) ;
#152 = PERSON_AND_ORGANIZATION_ROLE ( 'design_supplier' ) ;
#153 = DATE_AND_TIME ( #34, #109 ) ;
#154 = DIRECTION ( 'NONE',  ( 0.000000000000000000, 0.000000000000000000, 1.000000000000000000 ) ) ;
#155 = LOCAL_TIME ( 11, 16, 14.00000000000000000, #215 ) ;
#156 = DATE_AND_TIME ( #76, #9 ) ;
#157 = CYLINDRICAL_SURFACE ( 'NONE', #193, 5.000000000000000000 ) ;
#158 = PERSON_AND_ORGANIZATION ( #128, #145 ) ;
#159 = VECTOR ( 'NONE', #8, 1000.000000000000000 ) ;
#160 = EDGE_LOOP ( 'NONE', ( #84, #202 ) ) ;
#161 = DIRECTION ( 'NONE',  ( 1.000000000000000000, 0.000000000000000000, 0.000000000000000000 ) ) ;
#162 = AXIS2_PLACEMENT_3D ( 'NONE', #192, #90, #27 ) ;
#163 = CARTESIAN_POINT ( 'NONE',  ( 0.000000000000000000, 0.000000000000000000, 5.000000000000000000 ) ) ;
#164 = FACE_OUTER_BOUND ( 'NONE', #101, .T. ) ;
#165 = CC_DESIGN_PERSON_AND_ORGANIZATION_ASSIGNMENT ( #129, #199, ( #244 ) ) ;
#166 = LOCAL_TIME ( 11, 16, 14.00000000000000000, #110 ) ;
#167 = DIRECTION ( 'NONE',  ( 1.000000000000000000, 0.000000000000000000, 0.000000000000000000 ) ) ;
#168 = CC_DESIGN_PERSON_AND_ORGANIZATION_ASSIGNMENT ( #171, #152, ( #21 ) ) ;
#169 = DIRECTION ( 'NONE',  ( 1.000000000000000000, 0.000000000000000000, 0.000000000000000000 ) ) ;
#170 = COORDINATED_UNIVERSAL_TIME_OFFSET ( 1, 0, .AHEAD. ) ;
#171 = PERSON_AND_ORGANIZATION ( #128, #145 ) ;
#172 = APPROVAL_ROLE ( '' ) ;
#173 = AXIS2_PLACEMENT_3D ( 'NONE', #51, #10, #126 ) ;
#174 = MECHANICAL_CONTEXT ( 'NONE', #140, 'mechanical' ) ;
#175 = UNCERTAINTY_MEASURE_WITH_UNIT (LENGTH_MEASURE( 1.000000000000000082E-05 ), #30, 'distance_accuracy_value', 'NONE');
#176 = PERSON_AND_ORGANIZATION ( #128, #145 ) ;
#177 = SHAPE_DEFINITION_REPRESENTATION ( #122, #143 ) ;
#178 = CARTESIAN_POINT ( 'NONE',  ( 0.000000000000000000, 0.000000000000000000, 5.000000000000000000 ) ) ;
#179 = FACE_OUTER_BOUND ( 'NONE', #191, .T. ) ;
#180 = AXIS2_PLACEMENT_3D ( 'NONE', #28, #154, #73 ) ;
#181 = ORIENTED_EDGE ( 'NONE', *, *, #185, .T. ) ;
#182 = DIRECTION ( 'NONE',  ( -1.000000000000000000, 0.000000000000000000, 0.000000000000000000 ) ) ;
#183 = EDGE_CURVE ( 'NONE', #225, #240, #50, .T. ) ;
#184 = DIRECTION ( 'NONE',  ( 0.000000000000000000, 0.000000000000000000, 1.000000000000000000 ) ) ;
#185 = EDGE_CURVE ( 'NONE', #62, #116, #131, .T. ) ;
#186 = DIRECTION ( 'NONE',  ( 0.000000000000000000, 0.000000000000000000, 1.000000000000000000 ) ) ;
#187 = PLANE ( 'NONE',  #189 ) ;
#188 = EDGE_LOOP ( 'NONE', ( #235, #4, #221, #100 ) ) ;
#189 = AXIS2_PLACEMENT_3D ( 'NONE', #150, #87, #45 ) ;
#190 = CIRCLE ( 'NONE', #218, 5.000000000000000000 ) ;
#191 = EDGE_LOOP ( 'NONE', ( #181, #245 ) ) ;
#192 = CARTESIAN_POINT ( 'NONE',  ( 0.000000000000000000, 0.000000000000000000, 5.000000000000000000 ) ) ;
#193 = AXIS2_PLACEMENT_3D ( 'NONE', #59, #79, #103 ) ;
#194 = DATE_AND_TIME ( #112, #166 ) ;
#195 = CC_DESIGN_PERSON_AND_ORGANIZATION_ASSIGNMENT ( #250, #111, ( #52 ) ) ;
#196 = PERSON_AND_ORGANIZATION_ROLE ( 'creator' ) ;
#197 = PERSON_AND_ORGANIZATION ( #128, #145 ) ;
#198 = DIRECTION ( 'NONE',  ( -0.000000000000000000, -0.000000000000000000, -1.000000000000000000 ) ) ;
#199 = PERSON_AND_ORGANIZATION_ROLE ( 'classification_officer' ) ;
#200 =( GEOMETRIC_REPRESENTATION_CONTEXT ( 3 ) GLOBAL_UNCERTAINTY_ASSIGNED_CONTEXT ( ( #175 ) ) GLOBAL_UNIT_ASSIGNED_CONTEXT ( ( #30, #68, #23 ) ) REPRESENTATION_CONTEXT ( 'NONE', 'WORKASPACE' ) );
#201 = EDGE_LOOP ( 'NONE', ( #203, #236 ) ) ;
#202 = ORIENTED_EDGE ( 'NONE', *, *, #127, .F. ) ;
#203 = ORIENTED_EDGE ( 'NONE', *, *, #71, .F. ) ;
#204 = VERTEX_POINT ( 'NONE', #105 ) ;
#205 = ORIENTED_EDGE ( 'NONE', *, *, #130, .T. ) ;
#206 = EDGE_CURVE ( 'NONE', #204, #141, #190, .T. ) ;
#207 = AXIS2_PLACEMENT_3D ( 'NONE', #178, #184, #118 ) ;
#208 = CC_DESIGN_APPROVAL ( #216, ( #244 ) ) ;
#209 = DIRECTION ( 'NONE',  ( 0.000000000000000000, 0.000000000000000000, 1.000000000000000000 ) ) ;
#210 = MANIFOLD_SOLID_BREP ( 'Pøidat vysunutím3', #148 ) ;
#211 = CALENDAR_DATE ( 2023, 13, 2 ) ;
#212 = CARTESIAN_POINT ( 'NONE',  ( -5.000000000000000000, 0.000000000000000000, 5.000000000000000000 ) ) ;
#213 = DATE_TIME_ROLE ( 'classification_date' ) ;
#214 = CC_DESIGN_PERSON_AND_ORGANIZATION_ASSIGNMENT ( #197, #57, ( #21 ) ) ;
#215 = COORDINATED_UNIVERSAL_TIME_OFFSET ( 1, 0, .AHEAD. ) ;
#216 = APPROVAL ( #13, 'NEURÈENÝ' ) ;
#217 = CIRCLE ( 'NONE', #69, 8.000000000000000000 ) ;
#218 = AXIS2_PLACEMENT_3D ( 'NONE', #151, #186, #167 ) ;
#219 = ORIENTED_EDGE ( 'NONE', *, *, #48, .F. ) ;
#220 = ORIENTED_EDGE ( 'NONE', *, *, #127, .T. ) ;
#221 = ORIENTED_EDGE ( 'NONE', *, *, #67, .T. ) ;
#222 = CYLINDRICAL_SURFACE ( 'NONE', #173, 5.000000000000000000 ) ;
#223 = ORIENTED_EDGE ( 'NONE', *, *, #206, .T. ) ;
#224 = CARTESIAN_POINT ( 'NONE',  ( 0.000000000000000000, 0.000000000000000000, 5.000000000000000000 ) ) ;
#225 = VERTEX_POINT ( 'NONE', #46 ) ;
#226 = CARTESIAN_POINT ( 'NONE',  ( 0.000000000000000000, 0.000000000000000000, 0.000000000000000000 ) ) ;
#227 = AXIS2_PLACEMENT_3D ( 'NONE', #241, #40, #17 ) ;
#228 = APPROVAL_PERSON_ORGANIZATION ( #176, #95, #12 ) ;
#229 = APPROVAL_DATE_TIME ( #253, #95 ) ;
#230 = PERSON_AND_ORGANIZATION ( #128, #145 ) ;
#231 = CC_DESIGN_SECURITY_CLASSIFICATION ( #244, ( #21 ) ) ;
#232 = DATE_AND_TIME ( #211, #238 ) ;
#233 = APPROVAL_STATUS ( 'not_yet_approved' ) ;
#234 = CARTESIAN_POINT ( 'NONE',  ( 0.000000000000000000, 0.000000000000000000, 0.000000000000000000 ) ) ;
#235 = ORIENTED_EDGE ( 'NONE', *, *, #206, .F. ) ;
#236 = ORIENTED_EDGE ( 'NONE', *, *, #67, .F. ) ;
#237 = CIRCLE ( 'NONE', #15, 8.000000000000000000 ) ;
#238 = LOCAL_TIME ( 11, 16, 14.00000000000000000, #133 ) ;
#239 = DIRECTION ( 'NONE',  ( 0.000000000000000000, 0.000000000000000000, 1.000000000000000000 ) ) ;
#240 = VERTEX_POINT ( 'NONE', #120 ) ;
#241 = CARTESIAN_POINT ( 'NONE',  ( 0.000000000000000000, 0.000000000000000000, 5.000000000000000000 ) ) ;
#242 = PLANE ( 'NONE',  #243 ) ;
#243 = AXIS2_PLACEMENT_3D ( 'NONE', #64, #121, #137 ) ;
#244 = SECURITY_CLASSIFICATION ( '', '', #93 ) ;
#245 = ORIENTED_EDGE ( 'NONE', *, *, #54, .T. ) ;
#246 = DIRECTION ( 'NONE',  ( 0.000000000000000000, 0.000000000000000000, 1.000000000000000000 ) ) ;
#247 = LINE ( 'NONE', #123, #29 ) ;
#248 = VECTOR ( 'NONE', #198, 1000.000000000000000 ) ;
#249 = DIRECTION ( 'NONE',  ( 0.000000000000000000, 0.000000000000000000, 1.000000000000000000 ) ) ;
#250 = PERSON_AND_ORGANIZATION ( #128, #145 ) ;
#251 = ADVANCED_FACE ( 'NONE', ( #65 ), #222, .T. ) ;
#252 = COORDINATED_UNIVERSAL_TIME_OFFSET ( 1, 0, .AHEAD. ) ;
#253 = DATE_AND_TIME ( #78, #155 ) ;
#254 = LINE ( 'NONE', #113, #248 ) ;
#255 = EDGE_CURVE ( 'NONE', #204, #147, #247, .T. ) ;
ENDSEC;
END-ISO-10303-21;
