ISO-10303-21;
HEADER;
FILE_DESCRIPTION (( 'STEP AP203' ),
    '1' );
FILE_NAME ('b480.STEP',
    '2023-02-13T09:14:53',
    ( '' ),
    ( '' ),
    'SwSTEP 2.0',
    'SolidWorks 2019',
    '' );
FILE_SCHEMA (( 'CONFIG_CONTROL_DESIGN' ));
ENDSEC;

DATA;
#1 = CARTESIAN_POINT ( 'NONE',  ( 8.000000000000000000, 9.797174393178825657E-16, 315.0000000000000000 ) ) ;
#2 = EDGE_CURVE ( 'NONE', #77, #37, #138, .T. ) ;
#3 = APPROVAL ( #151, 'NEURÈENÝ' ) ;
#4 = EDGE_CURVE ( 'NONE', #141, #77, #182, .T. ) ;
#5 = PLANE ( 'NONE',  #240 ) ;
#6 = EDGE_CURVE ( 'NONE', #37, #95, #155, .T. ) ;
#7 = APPLICATION_CONTEXT ( 'configuration controlled 3d designs of mechanical parts and assemblies' ) ;
#8 = DATE_AND_TIME ( #225, #219 ) ;
#9 = ORIENTED_EDGE ( 'NONE', *, *, #30, .F. ) ;
#10 = CC_DESIGN_SECURITY_CLASSIFICATION ( #18, ( #14 ) ) ;
#11 = CYLINDRICAL_SURFACE ( 'NONE', #42, 8.000000000000000000 ) ;
#12 = AXIS2_PLACEMENT_3D ( 'NONE', #116, #235, #199 ) ;
#13 = ORIENTED_EDGE ( 'NONE', *, *, #6, .T. ) ;
#14 = PRODUCT_DEFINITION_FORMATION_WITH_SPECIFIED_SOURCE ( 'LIBOVOLNÝ', '', #236, .NOT_KNOWN. ) ;
#15 = VERTEX_POINT ( 'NONE', #90 ) ;
#16 = CARTESIAN_POINT ( 'NONE',  ( 0.000000000000000000, 0.000000000000000000, 0.000000000000000000 ) ) ;
#17 = CARTESIAN_POINT ( 'NONE',  ( 0.000000000000000000, 0.000000000000000000, 0.000000000000000000 ) ) ;
#18 = SECURITY_CLASSIFICATION ( '', '', #189 ) ;
#19 = ORIENTED_EDGE ( 'NONE', *, *, #2, .T. ) ;
#20 = DIRECTION ( 'NONE',  ( 1.000000000000000000, 0.000000000000000000, 0.000000000000000000 ) ) ;
#21 =( GEOMETRIC_REPRESENTATION_CONTEXT ( 3 ) GLOBAL_UNCERTAINTY_ASSIGNED_CONTEXT ( ( #216 ) ) GLOBAL_UNIT_ASSIGNED_CONTEXT ( ( #87, #135, #232 ) ) REPRESENTATION_CONTEXT ( 'NONE', 'WORKASPACE' ) );
#22 = DIRECTION ( 'NONE',  ( 0.000000000000000000, 0.000000000000000000, 1.000000000000000000 ) ) ;
#23 = COORDINATED_UNIVERSAL_TIME_OFFSET ( 1, 0, .AHEAD. ) ;
#24 = CARTESIAN_POINT ( 'NONE',  ( -11.00000000000000000, 0.000000000000000000, 7.000000000000000000 ) ) ;
#25 = AXIS2_PLACEMENT_3D ( 'NONE', #254, #221, #180 ) ;
#26 = COORDINATED_UNIVERSAL_TIME_OFFSET ( 1, 0, .AHEAD. ) ;
#27 = CC_DESIGN_PERSON_AND_ORGANIZATION_ASSIGNMENT ( #104, #100, ( #236 ) ) ;
#28 = AXIS2_PLACEMENT_3D ( 'NONE', #56, #143, #60 ) ;
#29 = DIRECTION ( 'NONE',  ( 0.000000000000000000, 0.000000000000000000, 1.000000000000000000 ) ) ;
#30 = EDGE_CURVE ( 'NONE', #95, #37, #70, .T. ) ;
#31 = LINE ( 'NONE', #107, #248 ) ;
#32 = CLOSED_SHELL ( 'NONE', ( #171, #97, #215, #208, #40, #147, #142 ) ) ;
#33 = DIRECTION ( 'NONE',  ( 1.000000000000000000, 0.000000000000000000, -0.000000000000000000 ) ) ;
#34 = EDGE_LOOP ( 'NONE', ( #150, #19, #13, #117 ) ) ;
#35 = CARTESIAN_POINT ( 'NONE',  ( 0.000000000000000000, 0.000000000000000000, 315.0000000000000000 ) ) ;
#36 = ORIENTED_EDGE ( 'NONE', *, *, #4, .T. ) ;
#37 = VERTEX_POINT ( 'NONE', #176 ) ;
#38 = AXIS2_PLACEMENT_3D ( 'NONE', #197, #50, #158 ) ;
#39 = CARTESIAN_POINT ( 'NONE',  ( 0.000000000000000000, 0.000000000000000000, 315.0000000000000000 ) ) ;
#40 = ADVANCED_FACE ( 'NONE', ( #113 ), #217, .F. ) ;
#41 = PERSON_AND_ORGANIZATION_ROLE ( 'creator' ) ;
#42 = AXIS2_PLACEMENT_3D ( 'NONE', #231, #252, #53 ) ;
#43 = COORDINATED_UNIVERSAL_TIME_OFFSET ( 1, 0, .AHEAD. ) ;
#44 = CALENDAR_DATE ( 2023, 13, 2 ) ;
#45 = FACE_OUTER_BOUND ( 'NONE', #52, .T. ) ;
#46 = ORIENTED_EDGE ( 'NONE', *, *, #6, .F. ) ;
#47 = CARTESIAN_POINT ( 'NONE',  ( 0.000000000000000000, 0.000000000000000000, 0.000000000000000000 ) ) ;
#48 = EDGE_CURVE ( 'NONE', #162, #242, #198, .T. ) ;
#49 = DATE_AND_TIME ( #211, #57 ) ;
#50 = DIRECTION ( 'NONE',  ( 0.000000000000000000, 0.000000000000000000, 1.000000000000000000 ) ) ;
#51 = AXIS2_PLACEMENT_3D ( 'NONE', #243, #58, #144 ) ;
#52 = EDGE_LOOP ( 'NONE', ( #36, #224 ) ) ;
#53 = DIRECTION ( 'NONE',  ( -1.000000000000000000, 0.000000000000000000, 0.000000000000000000 ) ) ;
#54 = CIRCLE ( 'NONE', #214, 8.000000000000000000 ) ;
#55 = ORIENTED_EDGE ( 'NONE', *, *, #137, .T. ) ;
#56 = CARTESIAN_POINT ( 'NONE',  ( 0.000000000000000000, 0.000000000000000000, 7.000000000000000000 ) ) ;
#57 = LOCAL_TIME ( 10, 14, 53.00000000000000000, #73 ) ;
#58 = DIRECTION ( 'NONE',  ( -0.000000000000000000, -0.000000000000000000, -1.000000000000000000 ) ) ;
#59 = ORIENTED_EDGE ( 'NONE', *, *, #30, .T. ) ;
#60 = DIRECTION ( 'NONE',  ( -1.000000000000000000, 0.000000000000000000, 0.000000000000000000 ) ) ;
#61 = LOCAL_TIME ( 10, 14, 53.00000000000000000, #26 ) ;
#62 = PERSON_AND_ORGANIZATION ( #99, #125 ) ;
#63 = APPROVAL_DATE_TIME ( #8, #3 ) ;
#64 = EDGE_LOOP ( 'NONE', ( #184, #79, #55, #251 ) ) ;
#65 = APPLICATION_PROTOCOL_DEFINITION ( 'international standard', 'config_control_design', 1994, #7 ) ;
#66 = COORDINATED_UNIVERSAL_TIME_OFFSET ( 1, 0, .AHEAD. ) ;
#67 = CC_DESIGN_PERSON_AND_ORGANIZATION_ASSIGNMENT ( #205, #172, ( #14 ) ) ;
#68 = ORIENTED_EDGE ( 'NONE', *, *, #210, .T. ) ;
#69 = FACE_BOUND ( 'NONE', #233, .T. ) ;
#70 = CIRCLE ( 'NONE', #12, 8.000000000000000000 ) ;
#71 = EDGE_CURVE ( 'NONE', #119, #15, #101, .T. ) ;
#72 = CYLINDRICAL_SURFACE ( 'NONE', #106, 11.00000000000000000 ) ;
#73 = COORDINATED_UNIVERSAL_TIME_OFFSET ( 1, 0, .AHEAD. ) ;
#74 = DIRECTION ( 'NONE',  ( 0.000000000000000000, 0.000000000000000000, 1.000000000000000000 ) ) ;
#75 = ORIENTED_EDGE ( 'NONE', *, *, #4, .F. ) ;
#76 = DIRECTION ( 'NONE',  ( 0.000000000000000000, 0.000000000000000000, 1.000000000000000000 ) ) ;
#77 = VERTEX_POINT ( 'NONE', #136 ) ;
#78 = APPROVAL_PERSON_ORGANIZATION ( #62, #3, #149 ) ;
#79 = ORIENTED_EDGE ( 'NONE', *, *, #91, .F. ) ;
#80 = DIRECTION ( 'NONE',  ( 1.000000000000000000, 0.000000000000000000, -0.000000000000000000 ) ) ;
#81 = MECHANICAL_CONTEXT ( 'NONE', #218, 'mechanical' ) ;
#82 = CARTESIAN_POINT ( 'NONE',  ( -8.000000000000000000, 0.000000000000000000, 315.0000000000000000 ) ) ;
#83 = PERSON_AND_ORGANIZATION ( #99, #125 ) ;
#84 = ORIENTED_EDGE ( 'NONE', *, *, #48, .F. ) ;
#85 = VECTOR ( 'NONE', #204, 1000.000000000000000 ) ;
#86 = APPROVAL_PERSON_ORGANIZATION ( #190, #238, #213 ) ;
#87 =( LENGTH_UNIT ( ) NAMED_UNIT ( * ) SI_UNIT ( .MILLI., .METRE. ) );
#88 = DIRECTION ( 'NONE',  ( 1.000000000000000000, 0.000000000000000000, 0.000000000000000000 ) ) ;
#89 = LOCAL_TIME ( 10, 14, 53.00000000000000000, #43 ) ;
#90 = CARTESIAN_POINT ( 'NONE',  ( 11.00000000000000000, 1.347111479062088405E-15, 0.000000000000000000 ) ) ;
#91 = EDGE_CURVE ( 'NONE', #242, #162, #103, .T. ) ;
#92 = PRODUCT_RELATED_PRODUCT_CATEGORY ( 'detail', '', ( #236 ) ) ;
#93 = FACE_OUTER_BOUND ( 'NONE', #64, .T. ) ;
#94 = VECTOR ( 'NONE', #223, 1000.000000000000000 ) ;
#95 = VERTEX_POINT ( 'NONE', #159 ) ;
#96 = DIRECTION ( 'NONE',  ( 0.000000000000000000, 0.000000000000000000, 1.000000000000000000 ) ) ;
#97 = ADVANCED_FACE ( 'NONE', ( #181 ), #241, .T. ) ;
#98 = DIRECTION ( 'NONE',  ( 1.000000000000000000, 0.000000000000000000, 0.000000000000000000 ) ) ;
#99 = PERSON ( 'NEURÈENÝ', 'NEURÈENÝ', 'NEURÈENÝ', ('NEURÈENÝ'), ('NEURÈENÝ'), ('NEURÈENÝ') ) ;
#100 = PERSON_AND_ORGANIZATION_ROLE ( 'design_owner' ) ;
#101 = CIRCLE ( 'NONE', #140, 11.00000000000000000 ) ;
#102 = CALENDAR_DATE ( 2023, 13, 2 ) ;
#103 = CIRCLE ( 'NONE', #25, 11.00000000000000000 ) ;
#104 = PERSON_AND_ORGANIZATION ( #99, #125 ) ;
#105 = ADVANCED_BREP_SHAPE_REPRESENTATION ( 'b480', ( #185, #195 ), #21 ) ;
#106 = AXIS2_PLACEMENT_3D ( 'NONE', #194, #156, #250 ) ;
#107 = CARTESIAN_POINT ( 'NONE',  ( 11.00000000000000000, 1.347111479062088405E-15, 7.000000000000000000 ) ) ;
#108 = LOCAL_TIME ( 10, 14, 53.00000000000000000, #66 ) ;
#109 = CC_DESIGN_PERSON_AND_ORGANIZATION_ASSIGNMENT ( #247, #148, ( #18 ) ) ;
#110 = DIRECTION ( 'NONE',  ( 1.000000000000000000, 0.000000000000000000, 0.000000000000000000 ) ) ;
#111 = DIRECTION ( 'NONE',  ( 0.000000000000000000, 0.000000000000000000, 1.000000000000000000 ) ) ;
#112 = VECTOR ( 'NONE', #230, 1000.000000000000000 ) ;
#113 = FACE_OUTER_BOUND ( 'NONE', #239, .T. ) ;
#114 = AXIS2_PLACEMENT_3D ( 'NONE', #47, #134, #33 ) ;
#115 = EDGE_CURVE ( 'NONE', #77, #141, #54, .T. ) ;
#116 = CARTESIAN_POINT ( 'NONE',  ( 0.000000000000000000, 0.000000000000000000, 7.000000000000000000 ) ) ;
#117 = ORIENTED_EDGE ( 'NONE', *, *, #128, .F. ) ;
#118 = CC_DESIGN_APPROVAL ( #238, ( #18 ) ) ;
#119 = VERTEX_POINT ( 'NONE', #164 ) ;
#120 = CARTESIAN_POINT ( 'NONE',  ( 11.00000000000000000, 1.347111479062088405E-15, 7.000000000000000000 ) ) ;
#121 = CC_DESIGN_PERSON_AND_ORGANIZATION_ASSIGNMENT ( #83, #168, ( #14 ) ) ;
#122 = LINE ( 'NONE', #173, #85 ) ;
#123 = APPROVAL_STATUS ( 'not_yet_approved' ) ;
#124 = CALENDAR_DATE ( 2023, 13, 2 ) ;
#125 = ORGANIZATION ( 'NEURÈENÝ', 'NEURÈENÝ', '' ) ;
#126 = DATE_TIME_ROLE ( 'creation_date' ) ;
#127 = ORIENTED_EDGE ( 'NONE', *, *, #48, .T. ) ;
#128 = EDGE_CURVE ( 'NONE', #141, #95, #122, .T. ) ;
#129 = DATE_TIME_ROLE ( 'classification_date' ) ;
#130 = DESIGN_CONTEXT ( 'detailed design', #7, 'design' ) ;
#131 = CYLINDRICAL_SURFACE ( 'NONE', #51, 8.000000000000000000 ) ;
#132 = PLANE ( 'NONE',  #175 ) ;
#133 = CC_DESIGN_DATE_AND_TIME_ASSIGNMENT ( #229, #126, ( #245 ) ) ;
#134 = DIRECTION ( 'NONE',  ( 0.000000000000000000, 0.000000000000000000, 1.000000000000000000 ) ) ;
#135 =( NAMED_UNIT ( * ) PLANE_ANGLE_UNIT ( ) SI_UNIT ( $, .RADIAN. ) );
#136 = CARTESIAN_POINT ( 'NONE',  ( 8.000000000000000000, 9.797174393178825657E-16, 315.0000000000000000 ) ) ;
#137 = EDGE_CURVE ( 'NONE', #242, #119, #152, .T. ) ;
#138 = LINE ( 'NONE', #1, #94 ) ;
#139 = EDGE_LOOP ( 'NONE', ( #177, #127 ) ) ;
#140 = AXIS2_PLACEMENT_3D ( 'NONE', #17, #96, #20 ) ;
#141 = VERTEX_POINT ( 'NONE', #82 ) ;
#142 = ADVANCED_FACE ( 'NONE', ( #45 ), #5, .T. ) ;
#143 = DIRECTION ( 'NONE',  ( -0.000000000000000000, -0.000000000000000000, -1.000000000000000000 ) ) ;
#144 = DIRECTION ( 'NONE',  ( -1.000000000000000000, 0.000000000000000000, 0.000000000000000000 ) ) ;
#145 = CARTESIAN_POINT ( 'NONE',  ( 0.000000000000000000, 0.000000000000000000, 315.0000000000000000 ) ) ;
#146 = AXIS2_PLACEMENT_3D ( 'NONE', #16, #111, #88 ) ;
#147 = ADVANCED_FACE ( 'NONE', ( #244 ), #131, .T. ) ;
#148 = PERSON_AND_ORGANIZATION_ROLE ( 'classification_officer' ) ;
#149 = APPROVAL_ROLE ( '' ) ;
#150 = ORIENTED_EDGE ( 'NONE', *, *, #115, .F. ) ;
#151 = APPROVAL_STATUS ( 'not_yet_approved' ) ;
#152 = LINE ( 'NONE', #24, #112 ) ;
#153 = CARTESIAN_POINT ( 'NONE',  ( 0.000000000000000000, 0.000000000000000000, 7.000000000000000000 ) ) ;
#154 = FACE_OUTER_BOUND ( 'NONE', #139, .T. ) ;
#155 = CIRCLE ( 'NONE', #38, 8.000000000000000000 ) ;
#156 = DIRECTION ( 'NONE',  ( -0.000000000000000000, -0.000000000000000000, -1.000000000000000000 ) ) ;
#157 = ORIENTED_EDGE ( 'NONE', *, *, #202, .F. ) ;
#158 = DIRECTION ( 'NONE',  ( 1.000000000000000000, 0.000000000000000000, 0.000000000000000000 ) ) ;
#159 = CARTESIAN_POINT ( 'NONE',  ( -8.000000000000000000, 0.000000000000000000, 7.000000000000000000 ) ) ;
#160 = EDGE_LOOP ( 'NONE', ( #84, #68, #161, #178 ) ) ;
#161 = ORIENTED_EDGE ( 'NONE', *, *, #202, .T. ) ;
#162 = VERTEX_POINT ( 'NONE', #120 ) ;
#163 = CC_DESIGN_APPROVAL ( #174, ( #14 ) ) ;
#164 = CARTESIAN_POINT ( 'NONE',  ( -11.00000000000000000, 0.000000000000000000, 0.000000000000000000 ) ) ;
#165 = CC_DESIGN_DATE_AND_TIME_ASSIGNMENT ( #206, #129, ( #18 ) ) ;
#166 = FACE_OUTER_BOUND ( 'NONE', #34, .T. ) ;
#167 = AXIS2_PLACEMENT_3D ( 'NONE', #35, #74, #222 ) ;
#168 = PERSON_AND_ORGANIZATION_ROLE ( 'design_supplier' ) ;
#169 = APPROVAL_PERSON_ORGANIZATION ( #207, #174, #187 ) ;
#170 = DATE_AND_TIME ( #102, #61 ) ;
#171 = ADVANCED_FACE ( 'NONE', ( #166 ), #11, .T. ) ;
#172 = PERSON_AND_ORGANIZATION_ROLE ( 'creator' ) ;
#173 = CARTESIAN_POINT ( 'NONE',  ( -8.000000000000000000, 0.000000000000000000, 315.0000000000000000 ) ) ;
#174 = APPROVAL ( #209, 'NEURÈENÝ' ) ;
#175 = AXIS2_PLACEMENT_3D ( 'NONE', #153, #29, #234 ) ;
#176 = CARTESIAN_POINT ( 'NONE',  ( 8.000000000000000000, 9.797174393178825657E-16, 7.000000000000000000 ) ) ;
#177 = ORIENTED_EDGE ( 'NONE', *, *, #91, .T. ) ;
#178 = ORIENTED_EDGE ( 'NONE', *, *, #137, .F. ) ;
#179 = DIRECTION ( 'NONE',  ( 0.000000000000000000, 0.000000000000000000, 1.000000000000000000 ) ) ;
#180 = DIRECTION ( 'NONE',  ( 1.000000000000000000, 0.000000000000000000, 0.000000000000000000 ) ) ;
#181 = FACE_OUTER_BOUND ( 'NONE', #160, .T. ) ;
#182 = CIRCLE ( 'NONE', #167, 8.000000000000000000 ) ;
#183 = ORIENTED_EDGE ( 'NONE', *, *, #128, .T. ) ;
#184 = ORIENTED_EDGE ( 'NONE', *, *, #210, .F. ) ;
#185 = MANIFOLD_SOLID_BREP ( 'Pøidat vysunutím3', #32 ) ;
#186 = AXIS2_PLACEMENT_3D ( 'NONE', #237, #76, #110 ) ;
#187 = APPROVAL_ROLE ( '' ) ;
#188 = ORIENTED_EDGE ( 'NONE', *, *, #71, .F. ) ;
#189 = SECURITY_CLASSIFICATION_LEVEL ( 'unclassified' ) ;
#190 = PERSON_AND_ORGANIZATION ( #99, #125 ) ;
#191 = CARTESIAN_POINT ( 'NONE',  ( -11.00000000000000000, 0.000000000000000000, 7.000000000000000000 ) ) ;
#192 = APPROVAL_DATE_TIME ( #49, #238 ) ;
#193 = CC_DESIGN_PERSON_AND_ORGANIZATION_ASSIGNMENT ( #227, #41, ( #245 ) ) ;
#194 = CARTESIAN_POINT ( 'NONE',  ( 0.000000000000000000, 0.000000000000000000, 7.000000000000000000 ) ) ;
#195 = AXIS2_PLACEMENT_3D ( 'NONE', #249, #179, #203 ) ;
#196 = PRODUCT_DEFINITION_SHAPE ( 'NONE', 'NONE',  #245 ) ;
#197 = CARTESIAN_POINT ( 'NONE',  ( 0.000000000000000000, 0.000000000000000000, 7.000000000000000000 ) ) ;
#198 = CIRCLE ( 'NONE', #186, 11.00000000000000000 ) ;
#199 = DIRECTION ( 'NONE',  ( 1.000000000000000000, 0.000000000000000000, 0.000000000000000000 ) ) ;
#200 = EDGE_LOOP ( 'NONE', ( #212, #75, #183, #59 ) ) ;
#201 = CIRCLE ( 'NONE', #146, 11.00000000000000000 ) ;
#202 = EDGE_CURVE ( 'NONE', #15, #119, #201, .T. ) ;
#203 = DIRECTION ( 'NONE',  ( 1.000000000000000000, 0.000000000000000000, 0.000000000000000000 ) ) ;
#204 = DIRECTION ( 'NONE',  ( -0.000000000000000000, -0.000000000000000000, -1.000000000000000000 ) ) ;
#205 = PERSON_AND_ORGANIZATION ( #99, #125 ) ;
#206 = DATE_AND_TIME ( #44, #108 ) ;
#207 = PERSON_AND_ORGANIZATION ( #99, #125 ) ;
#208 = ADVANCED_FACE ( 'NONE', ( #69, #154 ), #132, .T. ) ;
#209 = APPROVAL_STATUS ( 'not_yet_approved' ) ;
#210 = EDGE_CURVE ( 'NONE', #162, #15, #31, .T. ) ;
#211 = CALENDAR_DATE ( 2023, 13, 2 ) ;
#212 = ORIENTED_EDGE ( 'NONE', *, *, #2, .F. ) ;
#213 = APPROVAL_ROLE ( '' ) ;
#214 = AXIS2_PLACEMENT_3D ( 'NONE', #39, #22, #98 ) ;
#215 = ADVANCED_FACE ( 'NONE', ( #93 ), #72, .T. ) ;
#216 = UNCERTAINTY_MEASURE_WITH_UNIT (LENGTH_MEASURE( 1.000000000000000082E-05 ), #87, 'distance_accuracy_value', 'NONE');
#217 = PLANE ( 'NONE',  #114 ) ;
#218 = APPLICATION_CONTEXT ( 'configuration controlled 3d designs of mechanical parts and assemblies' ) ;
#219 = LOCAL_TIME ( 10, 14, 53.00000000000000000, #23 ) ;
#220 = SHAPE_DEFINITION_REPRESENTATION ( #196, #105 ) ;
#221 = DIRECTION ( 'NONE',  ( 0.000000000000000000, 0.000000000000000000, 1.000000000000000000 ) ) ;
#222 = DIRECTION ( 'NONE',  ( 1.000000000000000000, 0.000000000000000000, 0.000000000000000000 ) ) ;
#223 = DIRECTION ( 'NONE',  ( -0.000000000000000000, -0.000000000000000000, -1.000000000000000000 ) ) ;
#224 = ORIENTED_EDGE ( 'NONE', *, *, #115, .T. ) ;
#225 = CALENDAR_DATE ( 2023, 13, 2 ) ;
#226 = DIRECTION ( 'NONE',  ( 0.000000000000000000, 0.000000000000000000, 1.000000000000000000 ) ) ;
#227 = PERSON_AND_ORGANIZATION ( #99, #125 ) ;
#228 = CC_DESIGN_APPROVAL ( #3, ( #245 ) ) ;
#229 = DATE_AND_TIME ( #124, #89 ) ;
#230 = DIRECTION ( 'NONE',  ( -0.000000000000000000, -0.000000000000000000, -1.000000000000000000 ) ) ;
#231 = CARTESIAN_POINT ( 'NONE',  ( 0.000000000000000000, 0.000000000000000000, 315.0000000000000000 ) ) ;
#232 =( NAMED_UNIT ( * ) SI_UNIT ( $, .STERADIAN. ) SOLID_ANGLE_UNIT ( ) );
#233 = EDGE_LOOP ( 'NONE', ( #9, #46 ) ) ;
#234 = DIRECTION ( 'NONE',  ( 1.000000000000000000, 0.000000000000000000, -0.000000000000000000 ) ) ;
#235 = DIRECTION ( 'NONE',  ( 0.000000000000000000, 0.000000000000000000, 1.000000000000000000 ) ) ;
#236 = PRODUCT ( 'b480', 'b480', '', ( #81 ) ) ;
#237 = CARTESIAN_POINT ( 'NONE',  ( 0.000000000000000000, 0.000000000000000000, 7.000000000000000000 ) ) ;
#238 = APPROVAL ( #123, 'NEURÈENÝ' ) ;
#239 = EDGE_LOOP ( 'NONE', ( #188, #157 ) ) ;
#240 = AXIS2_PLACEMENT_3D ( 'NONE', #145, #226, #80 ) ;
#241 = CYLINDRICAL_SURFACE ( 'NONE', #28, 11.00000000000000000 ) ;
#242 = VERTEX_POINT ( 'NONE', #191 ) ;
#243 = CARTESIAN_POINT ( 'NONE',  ( 0.000000000000000000, 0.000000000000000000, 315.0000000000000000 ) ) ;
#244 = FACE_OUTER_BOUND ( 'NONE', #200, .T. ) ;
#245 = PRODUCT_DEFINITION ( 'NEZNÁMÝ', '', #14, #130 ) ;
#246 = APPROVAL_DATE_TIME ( #170, #174 ) ;
#247 = PERSON_AND_ORGANIZATION ( #99, #125 ) ;
#248 = VECTOR ( 'NONE', #255, 1000.000000000000000 ) ;
#249 = CARTESIAN_POINT ( 'NONE',  ( 0.000000000000000000, 0.000000000000000000, 0.000000000000000000 ) ) ;
#250 = DIRECTION ( 'NONE',  ( -1.000000000000000000, 0.000000000000000000, 0.000000000000000000 ) ) ;
#251 = ORIENTED_EDGE ( 'NONE', *, *, #71, .T. ) ;
#252 = DIRECTION ( 'NONE',  ( -0.000000000000000000, -0.000000000000000000, -1.000000000000000000 ) ) ;
#253 = APPLICATION_PROTOCOL_DEFINITION ( 'international standard', 'config_control_design', 1994, #218 ) ;
#254 = CARTESIAN_POINT ( 'NONE',  ( 0.000000000000000000, 0.000000000000000000, 7.000000000000000000 ) ) ;
#255 = DIRECTION ( 'NONE',  ( -0.000000000000000000, -0.000000000000000000, -1.000000000000000000 ) ) ;
ENDSEC;
END-ISO-10303-21;
