ISO-10303-21;
HEADER;
FILE_DESCRIPTION (( 'STEP AP203' ),
    '1' );
FILE_NAME ('66a8.STEP',
    '2023-02-13T09:17:19',
    ( '' ),
    ( '' ),
    'SwSTEP 2.0',
    'SolidWorks 2019',
    '' );
FILE_SCHEMA (( 'CONFIG_CONTROL_DESIGN' ));
ENDSEC;

DATA;
#1 = AXIS2_PLACEMENT_3D ( 'NONE', #220, #12, #237 ) ;
#2 = PRODUCT ( '66a8', '66a8', '', ( #80 ) ) ;
#3 = DIRECTION ( 'NONE',  ( -0.000000000000000000, -0.000000000000000000, -1.000000000000000000 ) ) ;
#4 = CIRCLE ( 'NONE', #172, 11.00000000000000000 ) ;
#5 = DIRECTION ( 'NONE',  ( 1.000000000000000000, 0.000000000000000000, -0.000000000000000000 ) ) ;
#6 = CIRCLE ( 'NONE', #194, 7.000000000000000000 ) ;
#7 = EDGE_CURVE ( 'NONE', #242, #209, #107, .T. ) ;
#8 = CARTESIAN_POINT ( 'NONE',  ( -7.000000000000000000, 0.000000000000000000, 125.0000000000000000 ) ) ;
#9 = PERSON_AND_ORGANIZATION ( #175, #84 ) ;
#10 = CARTESIAN_POINT ( 'NONE',  ( 0.000000000000000000, 0.000000000000000000, 7.000000000000000000 ) ) ;
#11 = APPLICATION_PROTOCOL_DEFINITION ( 'international standard', 'config_control_design', 1994, #111 ) ;
#12 = DIRECTION ( 'NONE',  ( 0.000000000000000000, 0.000000000000000000, 1.000000000000000000 ) ) ;
#13 = ORIENTED_EDGE ( 'NONE', *, *, #77, .F. ) ;
#14 = AXIS2_PLACEMENT_3D ( 'NONE', #144, #46, #121 ) ;
#15 = CARTESIAN_POINT ( 'NONE',  ( 11.00000000000000000, 1.347111479062088405E-15, 7.000000000000000000 ) ) ;
#16 = CARTESIAN_POINT ( 'NONE',  ( -11.00000000000000000, 0.000000000000000000, 7.000000000000000000 ) ) ;
#17 = APPROVAL_STATUS ( 'not_yet_approved' ) ;
#18 = CIRCLE ( 'NONE', #253, 11.00000000000000000 ) ;
#19 = APPROVAL_DATE_TIME ( #170, #251 ) ;
#20 = DATE_AND_TIME ( #128, #243 ) ;
#21 = LOCAL_TIME ( 10, 17, 19.00000000000000000, #76 ) ;
#22 = DIRECTION ( 'NONE',  ( -1.000000000000000000, 0.000000000000000000, 0.000000000000000000 ) ) ;
#23 = VERTEX_POINT ( 'NONE', #207 ) ;
#24 = ADVANCED_FACE ( 'NONE', ( #246 ), #73, .T. ) ;
#25 = DIRECTION ( 'NONE',  ( 0.000000000000000000, 0.000000000000000000, 1.000000000000000000 ) ) ;
#26 = ORIENTED_EDGE ( 'NONE', *, *, #240, .T. ) ;
#27 = DIRECTION ( 'NONE',  ( -1.000000000000000000, 0.000000000000000000, 0.000000000000000000 ) ) ;
#28 = APPROVAL_STATUS ( 'not_yet_approved' ) ;
#29 = ADVANCED_FACE ( 'NONE', ( #78, #135 ), #215, .T. ) ;
#30 = DATE_AND_TIME ( #71, #214 ) ;
#31 = VERTEX_POINT ( 'NONE', #65 ) ;
#32 = CIRCLE ( 'NONE', #43, 7.000000000000000000 ) ;
#33 = PERSON_AND_ORGANIZATION ( #175, #84 ) ;
#34 = ADVANCED_FACE ( 'NONE', ( #160 ), #87, .T. ) ;
#35 = ORIENTED_EDGE ( 'NONE', *, *, #216, .T. ) ;
#36 = SHAPE_DEFINITION_REPRESENTATION ( #100, #126 ) ;
#37 = CC_DESIGN_APPROVAL ( #176, ( #183 ) ) ;
#38 = COORDINATED_UNIVERSAL_TIME_OFFSET ( 1, 0, .AHEAD. ) ;
#39 = CC_DESIGN_PERSON_AND_ORGANIZATION_ASSIGNMENT ( #221, #148, ( #104 ) ) ;
#40 = CARTESIAN_POINT ( 'NONE',  ( -11.00000000000000000, 0.000000000000000000, 7.000000000000000000 ) ) ;
#41 = LOCAL_TIME ( 10, 17, 19.00000000000000000, #225 ) ;
#42 = PLANE ( 'NONE',  #255 ) ;
#43 = AXIS2_PLACEMENT_3D ( 'NONE', #10, #70, #210 ) ;
#44 = DIRECTION ( 'NONE',  ( 1.000000000000000000, 0.000000000000000000, 0.000000000000000000 ) ) ;
#45 = CARTESIAN_POINT ( 'NONE',  ( 0.000000000000000000, 0.000000000000000000, 0.000000000000000000 ) ) ;
#46 = DIRECTION ( 'NONE',  ( -0.000000000000000000, -0.000000000000000000, -1.000000000000000000 ) ) ;
#47 = EDGE_LOOP ( 'NONE', ( #191, #88 ) ) ;
#48 = AXIS2_PLACEMENT_3D ( 'NONE', #231, #53, #60 ) ;
#49 = CALENDAR_DATE ( 2023, 13, 2 ) ;
#50 = ORIENTED_EDGE ( 'NONE', *, *, #77, .T. ) ;
#51 = CARTESIAN_POINT ( 'NONE',  ( 0.000000000000000000, 0.000000000000000000, 7.000000000000000000 ) ) ;
#52 = DIRECTION ( 'NONE',  ( 0.000000000000000000, 0.000000000000000000, 1.000000000000000000 ) ) ;
#53 = DIRECTION ( 'NONE',  ( -0.000000000000000000, -0.000000000000000000, -1.000000000000000000 ) ) ;
#54 = CC_DESIGN_PERSON_AND_ORGANIZATION_ASSIGNMENT ( #198, #114, ( #2 ) ) ;
#55 = EDGE_LOOP ( 'NONE', ( #68, #162 ) ) ;
#56 = CARTESIAN_POINT ( 'NONE',  ( 0.000000000000000000, 0.000000000000000000, 7.000000000000000000 ) ) ;
#57 = PERSON_AND_ORGANIZATION ( #175, #84 ) ;
#58 = APPROVAL_PERSON_ORGANIZATION ( #9, #117, #241 ) ;
#59 = MANIFOLD_SOLID_BREP ( 'Pøidat vysunutím3', #218 ) ;
#60 = DIRECTION ( 'NONE',  ( -1.000000000000000000, 0.000000000000000000, 0.000000000000000000 ) ) ;
#61 = CC_DESIGN_PERSON_AND_ORGANIZATION_ASSIGNMENT ( #33, #213, ( #183 ) ) ;
#62 = DIRECTION ( 'NONE',  ( 0.000000000000000000, 0.000000000000000000, 1.000000000000000000 ) ) ;
#63 = CARTESIAN_POINT ( 'NONE',  ( 0.000000000000000000, 0.000000000000000000, 125.0000000000000000 ) ) ;
#64 = APPLICATION_CONTEXT ( 'configuration controlled 3d designs of mechanical parts and assemblies' ) ;
#65 = CARTESIAN_POINT ( 'NONE',  ( 11.00000000000000000, 1.347111479062088405E-15, 0.000000000000000000 ) ) ;
#66 = CARTESIAN_POINT ( 'NONE',  ( 7.000000000000000000, 8.572527594031473190E-16, 125.0000000000000000 ) ) ;
#67 = COORDINATED_UNIVERSAL_TIME_OFFSET ( 1, 0, .AHEAD. ) ;
#68 = ORIENTED_EDGE ( 'NONE', *, *, #199, .T. ) ;
#69 = AXIS2_PLACEMENT_3D ( 'NONE', #129, #190, #179 ) ;
#70 = DIRECTION ( 'NONE',  ( 0.000000000000000000, 0.000000000000000000, 1.000000000000000000 ) ) ;
#71 = CALENDAR_DATE ( 2023, 13, 2 ) ;
#72 = CARTESIAN_POINT ( 'NONE',  ( 7.000000000000000000, 8.572527594031473190E-16, 125.0000000000000000 ) ) ;
#73 = CYLINDRICAL_SURFACE ( 'NONE', #48, 7.000000000000000000 ) ;
#74 = EDGE_CURVE ( 'NONE', #31, #23, #18, .T. ) ;
#75 = ORIENTED_EDGE ( 'NONE', *, *, #199, .F. ) ;
#76 = COORDINATED_UNIVERSAL_TIME_OFFSET ( 1, 0, .AHEAD. ) ;
#77 = EDGE_CURVE ( 'NONE', #188, #222, #147, .T. ) ;
#78 = FACE_BOUND ( 'NONE', #248, .T. ) ;
#79 = LOCAL_TIME ( 10, 17, 19.00000000000000000, #67 ) ;
#80 = MECHANICAL_CONTEXT ( 'NONE', #64, 'mechanical' ) ;
#81 = DIRECTION ( 'NONE',  ( 0.000000000000000000, 0.000000000000000000, 1.000000000000000000 ) ) ;
#82 = CYLINDRICAL_SURFACE ( 'NONE', #145, 11.00000000000000000 ) ;
#83 = PERSON_AND_ORGANIZATION ( #175, #84 ) ;
#84 = ORGANIZATION ( 'NEURÈENÝ', 'NEURÈENÝ', '' ) ;
#85 = VERTEX_POINT ( 'NONE', #8 ) ;
#86 = ADVANCED_FACE ( 'NONE', ( #224 ), #82, .T. ) ;
#87 = CYLINDRICAL_SURFACE ( 'NONE', #132, 7.000000000000000000 ) ;
#88 = ORIENTED_EDGE ( 'NONE', *, *, #252, .T. ) ;
#89 = DIRECTION ( 'NONE',  ( 0.000000000000000000, 0.000000000000000000, 1.000000000000000000 ) ) ;
#90 = PERSON_AND_ORGANIZATION ( #175, #84 ) ;
#91 = CARTESIAN_POINT ( 'NONE',  ( -7.000000000000000000, 0.000000000000000000, 7.000000000000000000 ) ) ;
#92 = EDGE_LOOP ( 'NONE', ( #250, #26, #130, #171 ) ) ;
#93 = EDGE_LOOP ( 'NONE', ( #168, #50, #228, #152 ) ) ;
#94 = CALENDAR_DATE ( 2023, 13, 2 ) ;
#95 = CIRCLE ( 'NONE', #1, 7.000000000000000000 ) ;
#96 = EDGE_CURVE ( 'NONE', #23, #31, #4, .T. ) ;
#97 = PERSON_AND_ORGANIZATION_ROLE ( 'classification_officer' ) ;
#98 = EDGE_CURVE ( 'NONE', #188, #85, #95, .T. ) ;
#99 = CARTESIAN_POINT ( 'NONE',  ( 11.00000000000000000, 1.347111479062088405E-15, 7.000000000000000000 ) ) ;
#100 = PRODUCT_DEFINITION_SHAPE ( 'NONE', 'NONE',  #104 ) ;
#101 = DIRECTION ( 'NONE',  ( -0.000000000000000000, -0.000000000000000000, -1.000000000000000000 ) ) ;
#102 = FACE_OUTER_BOUND ( 'NONE', #55, .T. ) ;
#103 = VECTOR ( 'NONE', #136, 1000.000000000000000 ) ;
#104 = PRODUCT_DEFINITION ( 'NEZNÁMÝ', '', #183, #239 ) ;
#105 = EDGE_LOOP ( 'NONE', ( #204, #249, #124, #149 ) ) ;
#106 = APPROVAL_DATE_TIME ( #30, #176 ) ;
#107 = CIRCLE ( 'NONE', #254, 11.00000000000000000 ) ;
#108 = CC_DESIGN_PERSON_AND_ORGANIZATION_ASSIGNMENT ( #83, #158, ( #183 ) ) ;
#109 = CC_DESIGN_PERSON_AND_ORGANIZATION_ASSIGNMENT ( #230, #97, ( #232 ) ) ;
#110 = CARTESIAN_POINT ( 'NONE',  ( 7.000000000000000000, 8.572527594031473190E-16, 7.000000000000000000 ) ) ;
#111 = APPLICATION_CONTEXT ( 'configuration controlled 3d designs of mechanical parts and assemblies' ) ;
#112 = CC_DESIGN_DATE_AND_TIME_ASSIGNMENT ( #20, #211, ( #232 ) ) ;
#113 = DIRECTION ( 'NONE',  ( 0.000000000000000000, 0.000000000000000000, 1.000000000000000000 ) ) ;
#114 = PERSON_AND_ORGANIZATION_ROLE ( 'design_owner' ) ;
#115 = DIRECTION ( 'NONE',  ( 1.000000000000000000, 0.000000000000000000, 0.000000000000000000 ) ) ;
#116 = CYLINDRICAL_SURFACE ( 'NONE', #14, 11.00000000000000000 ) ;
#117 = APPROVAL ( #161, 'NEURÈENÝ' ) ;
#118 =( LENGTH_UNIT ( ) NAMED_UNIT ( * ) SI_UNIT ( .MILLI., .METRE. ) );
#119 = AXIS2_PLACEMENT_3D ( 'NONE', #131, #52, #169 ) ;
#120 = AXIS2_PLACEMENT_3D ( 'NONE', #196, #25, #5 ) ;
#121 = DIRECTION ( 'NONE',  ( -1.000000000000000000, 0.000000000000000000, 0.000000000000000000 ) ) ;
#122 = ORIENTED_EDGE ( 'NONE', *, *, #178, .F. ) ;
#123 = DATE_AND_TIME ( #49, #41 ) ;
#124 = ORIENTED_EDGE ( 'NONE', *, *, #197, .T. ) ;
#125 = DIRECTION ( 'NONE',  ( 1.000000000000000000, 0.000000000000000000, 0.000000000000000000 ) ) ;
#126 = ADVANCED_BREP_SHAPE_REPRESENTATION ( '66a8', ( #59, #69 ), #208 ) ;
#127 = ORIENTED_EDGE ( 'NONE', *, *, #96, .F. ) ;
#128 = CALENDAR_DATE ( 2023, 13, 2 ) ;
#129 = CARTESIAN_POINT ( 'NONE',  ( 0.000000000000000000, 0.000000000000000000, 0.000000000000000000 ) ) ;
#130 = ORIENTED_EDGE ( 'NONE', *, *, #74, .T. ) ;
#131 = CARTESIAN_POINT ( 'NONE',  ( 0.000000000000000000, 0.000000000000000000, 125.0000000000000000 ) ) ;
#132 = AXIS2_PLACEMENT_3D ( 'NONE', #63, #3, #22 ) ;
#133 = APPLICATION_PROTOCOL_DEFINITION ( 'international standard', 'config_control_design', 1994, #64 ) ;
#134 = APPROVAL_PERSON_ORGANIZATION ( #57, #251, #173 ) ;
#135 = FACE_OUTER_BOUND ( 'NONE', #47, .T. ) ;
#136 = DIRECTION ( 'NONE',  ( -0.000000000000000000, -0.000000000000000000, -1.000000000000000000 ) ) ;
#137 = VECTOR ( 'NONE', #195, 1000.000000000000000 ) ;
#138 = ADVANCED_FACE ( 'NONE', ( #186 ), #42, .F. ) ;
#139 = VECTOR ( 'NONE', #201, 1000.000000000000000 ) ;
#140 = AXIS2_PLACEMENT_3D ( 'NONE', #155, #81, #235 ) ;
#141 = CARTESIAN_POINT ( 'NONE',  ( 0.000000000000000000, 0.000000000000000000, 0.000000000000000000 ) ) ;
#142 = DATE_AND_TIME ( #238, #79 ) ;
#143 = ORIENTED_EDGE ( 'NONE', *, *, #74, .F. ) ;
#144 = CARTESIAN_POINT ( 'NONE',  ( 0.000000000000000000, 0.000000000000000000, 7.000000000000000000 ) ) ;
#145 = AXIS2_PLACEMENT_3D ( 'NONE', #157, #205, #27 ) ;
#146 = APPROVAL_PERSON_ORGANIZATION ( #90, #176, #166 ) ;
#147 = LINE ( 'NONE', #66, #139 ) ;
#148 = PERSON_AND_ORGANIZATION_ROLE ( 'creator' ) ;
#149 = ORIENTED_EDGE ( 'NONE', *, *, #96, .T. ) ;
#150 = APPROVAL_DATE_TIME ( #142, #117 ) ;
#151 = EDGE_LOOP ( 'NONE', ( #127, #143 ) ) ;
#152 = ORIENTED_EDGE ( 'NONE', *, *, #219, .F. ) ;
#153 = LINE ( 'NONE', #16, #137 ) ;
#154 = PRODUCT_RELATED_PRODUCT_CATEGORY ( 'detail', '', ( #2 ) ) ;
#155 = CARTESIAN_POINT ( 'NONE',  ( 0.000000000000000000, 0.000000000000000000, 7.000000000000000000 ) ) ;
#156 = ADVANCED_FACE ( 'NONE', ( #184 ), #116, .T. ) ;
#157 = CARTESIAN_POINT ( 'NONE',  ( 0.000000000000000000, 0.000000000000000000, 7.000000000000000000 ) ) ;
#158 = PERSON_AND_ORGANIZATION_ROLE ( 'creator' ) ;
#159 = CARTESIAN_POINT ( 'NONE',  ( 0.000000000000000000, 0.000000000000000000, 0.000000000000000000 ) ) ;
#160 = FACE_OUTER_BOUND ( 'NONE', #229, .T. ) ;
#161 = APPROVAL_STATUS ( 'not_yet_approved' ) ;
#162 = ORIENTED_EDGE ( 'NONE', *, *, #98, .T. ) ;
#163 =( NAMED_UNIT ( * ) SI_UNIT ( $, .STERADIAN. ) SOLID_ANGLE_UNIT ( ) );
#164 = CC_DESIGN_APPROVAL ( #251, ( #232 ) ) ;
#165 = PLANE ( 'NONE',  #202 ) ;
#166 = APPROVAL_ROLE ( '' ) ;
#167 = ADVANCED_FACE ( 'NONE', ( #102 ), #165, .T. ) ;
#168 = ORIENTED_EDGE ( 'NONE', *, *, #98, .F. ) ;
#169 = DIRECTION ( 'NONE',  ( 1.000000000000000000, 0.000000000000000000, 0.000000000000000000 ) ) ;
#170 = DATE_AND_TIME ( #94, #21 ) ;
#171 = ORIENTED_EDGE ( 'NONE', *, *, #197, .F. ) ;
#172 = AXIS2_PLACEMENT_3D ( 'NONE', #141, #62, #44 ) ;
#173 = APPROVAL_ROLE ( '' ) ;
#174 = LINE ( 'NONE', #217, #236 ) ;
#175 = PERSON ( 'NEURÈENÝ', 'NEURÈENÝ', 'NEURÈENÝ', ('NEURÈENÝ'), ('NEURÈENÝ'), ('NEURÈENÝ') ) ;
#176 = APPROVAL ( #28, 'NEURÈENÝ' ) ;
#177 = CIRCLE ( 'NONE', #140, 11.00000000000000000 ) ;
#178 = EDGE_CURVE ( 'NONE', #222, #182, #32, .T. ) ;
#179 = DIRECTION ( 'NONE',  ( 1.000000000000000000, 0.000000000000000000, 0.000000000000000000 ) ) ;
#180 = CC_DESIGN_SECURITY_CLASSIFICATION ( #232, ( #183 ) ) ;
#181 = CARTESIAN_POINT ( 'NONE',  ( 0.000000000000000000, 0.000000000000000000, 125.0000000000000000 ) ) ;
#182 = VERTEX_POINT ( 'NONE', #91 ) ;
#183 = PRODUCT_DEFINITION_FORMATION_WITH_SPECIFIED_SOURCE ( 'LIBOVOLNÝ', '', #2, .NOT_KNOWN. ) ;
#184 = FACE_OUTER_BOUND ( 'NONE', #105, .T. ) ;
#185 =( NAMED_UNIT ( * ) PLANE_ANGLE_UNIT ( ) SI_UNIT ( $, .RADIAN. ) );
#186 = FACE_OUTER_BOUND ( 'NONE', #151, .T. ) ;
#187 = ORIENTED_EDGE ( 'NONE', *, *, #216, .F. ) ;
#188 = VERTEX_POINT ( 'NONE', #72 ) ;
#189 = SECURITY_CLASSIFICATION_LEVEL ( 'unclassified' ) ;
#190 = DIRECTION ( 'NONE',  ( 0.000000000000000000, 0.000000000000000000, 1.000000000000000000 ) ) ;
#191 = ORIENTED_EDGE ( 'NONE', *, *, #7, .T. ) ;
#192 = DIRECTION ( 'NONE',  ( 1.000000000000000000, 0.000000000000000000, 0.000000000000000000 ) ) ;
#193 = UNCERTAINTY_MEASURE_WITH_UNIT (LENGTH_MEASURE( 1.000000000000000082E-05 ), #118, 'distance_accuracy_value', 'NONE');
#194 = AXIS2_PLACEMENT_3D ( 'NONE', #56, #212, #192 ) ;
#195 = DIRECTION ( 'NONE',  ( -0.000000000000000000, -0.000000000000000000, -1.000000000000000000 ) ) ;
#196 = CARTESIAN_POINT ( 'NONE',  ( 0.000000000000000000, 0.000000000000000000, 7.000000000000000000 ) ) ;
#197 = EDGE_CURVE ( 'NONE', #242, #23, #153, .T. ) ;
#198 = PERSON_AND_ORGANIZATION ( #175, #84 ) ;
#199 = EDGE_CURVE ( 'NONE', #85, #188, #234, .T. ) ;
#200 = DIRECTION ( 'NONE',  ( 1.000000000000000000, 0.000000000000000000, -0.000000000000000000 ) ) ;
#201 = DIRECTION ( 'NONE',  ( -0.000000000000000000, -0.000000000000000000, -1.000000000000000000 ) ) ;
#202 = AXIS2_PLACEMENT_3D ( 'NONE', #181, #244, #203 ) ;
#203 = DIRECTION ( 'NONE',  ( 1.000000000000000000, 0.000000000000000000, -0.000000000000000000 ) ) ;
#204 = ORIENTED_EDGE ( 'NONE', *, *, #240, .F. ) ;
#205 = DIRECTION ( 'NONE',  ( -0.000000000000000000, -0.000000000000000000, -1.000000000000000000 ) ) ;
#206 = DATE_TIME_ROLE ( 'creation_date' ) ;
#207 = CARTESIAN_POINT ( 'NONE',  ( -11.00000000000000000, 0.000000000000000000, 0.000000000000000000 ) ) ;
#208 =( GEOMETRIC_REPRESENTATION_CONTEXT ( 3 ) GLOBAL_UNCERTAINTY_ASSIGNED_CONTEXT ( ( #193 ) ) GLOBAL_UNIT_ASSIGNED_CONTEXT ( ( #118, #185, #163 ) ) REPRESENTATION_CONTEXT ( 'NONE', 'WORKASPACE' ) );
#209 = VERTEX_POINT ( 'NONE', #15 ) ;
#210 = DIRECTION ( 'NONE',  ( 1.000000000000000000, 0.000000000000000000, 0.000000000000000000 ) ) ;
#211 = DATE_TIME_ROLE ( 'classification_date' ) ;
#212 = DIRECTION ( 'NONE',  ( 0.000000000000000000, 0.000000000000000000, 1.000000000000000000 ) ) ;
#213 = PERSON_AND_ORGANIZATION_ROLE ( 'design_supplier' ) ;
#214 = LOCAL_TIME ( 10, 17, 19.00000000000000000, #227 ) ;
#215 = PLANE ( 'NONE',  #120 ) ;
#216 = EDGE_CURVE ( 'NONE', #182, #222, #6, .T. ) ;
#217 = CARTESIAN_POINT ( 'NONE',  ( -7.000000000000000000, 0.000000000000000000, 125.0000000000000000 ) ) ;
#218 = CLOSED_SHELL ( 'NONE', ( #24, #86, #156, #29, #138, #34, #167 ) ) ;
#219 = EDGE_CURVE ( 'NONE', #85, #182, #174, .T. ) ;
#220 = CARTESIAN_POINT ( 'NONE',  ( 0.000000000000000000, 0.000000000000000000, 125.0000000000000000 ) ) ;
#221 = PERSON_AND_ORGANIZATION ( #175, #84 ) ;
#222 = VERTEX_POINT ( 'NONE', #110 ) ;
#223 = CC_DESIGN_APPROVAL ( #117, ( #104 ) ) ;
#224 = FACE_OUTER_BOUND ( 'NONE', #92, .T. ) ;
#225 = COORDINATED_UNIVERSAL_TIME_OFFSET ( 1, 0, .AHEAD. ) ;
#226 = ORIENTED_EDGE ( 'NONE', *, *, #219, .T. ) ;
#227 = COORDINATED_UNIVERSAL_TIME_OFFSET ( 1, 0, .AHEAD. ) ;
#228 = ORIENTED_EDGE ( 'NONE', *, *, #178, .T. ) ;
#229 = EDGE_LOOP ( 'NONE', ( #13, #75, #226, #35 ) ) ;
#230 = PERSON_AND_ORGANIZATION ( #175, #84 ) ;
#231 = CARTESIAN_POINT ( 'NONE',  ( 0.000000000000000000, 0.000000000000000000, 125.0000000000000000 ) ) ;
#232 = SECURITY_CLASSIFICATION ( '', '', #189 ) ;
#233 = LINE ( 'NONE', #99, #103 ) ;
#234 = CIRCLE ( 'NONE', #119, 7.000000000000000000 ) ;
#235 = DIRECTION ( 'NONE',  ( 1.000000000000000000, 0.000000000000000000, 0.000000000000000000 ) ) ;
#236 = VECTOR ( 'NONE', #101, 1000.000000000000000 ) ;
#237 = DIRECTION ( 'NONE',  ( 1.000000000000000000, 0.000000000000000000, 0.000000000000000000 ) ) ;
#238 = CALENDAR_DATE ( 2023, 13, 2 ) ;
#239 = DESIGN_CONTEXT ( 'detailed design', #111, 'design' ) ;
#240 = EDGE_CURVE ( 'NONE', #209, #31, #233, .T. ) ;
#241 = APPROVAL_ROLE ( '' ) ;
#242 = VERTEX_POINT ( 'NONE', #40 ) ;
#243 = LOCAL_TIME ( 10, 17, 19.00000000000000000, #38 ) ;
#244 = DIRECTION ( 'NONE',  ( 0.000000000000000000, 0.000000000000000000, 1.000000000000000000 ) ) ;
#245 = DIRECTION ( 'NONE',  ( 0.000000000000000000, 0.000000000000000000, 1.000000000000000000 ) ) ;
#246 = FACE_OUTER_BOUND ( 'NONE', #93, .T. ) ;
#247 = CC_DESIGN_DATE_AND_TIME_ASSIGNMENT ( #123, #206, ( #104 ) ) ;
#248 = EDGE_LOOP ( 'NONE', ( #187, #122 ) ) ;
#249 = ORIENTED_EDGE ( 'NONE', *, *, #7, .F. ) ;
#250 = ORIENTED_EDGE ( 'NONE', *, *, #252, .F. ) ;
#251 = APPROVAL ( #17, 'NEURÈENÝ' ) ;
#252 = EDGE_CURVE ( 'NONE', #209, #242, #177, .T. ) ;
#253 = AXIS2_PLACEMENT_3D ( 'NONE', #159, #113, #115 ) ;
#254 = AXIS2_PLACEMENT_3D ( 'NONE', #51, #245, #125 ) ;
#255 = AXIS2_PLACEMENT_3D ( 'NONE', #45, #89, #200 ) ;
ENDSEC;
END-ISO-10303-21;
