ISO-10303-21;
HEADER;
FILE_DESCRIPTION (( 'STEP AP203' ),
    '1' );
FILE_NAME ('1155.STEP',
    '2023-02-13T10:15:47',
    ( '' ),
    ( '' ),
    'SwSTEP 2.0',
    'SolidWorks 2019',
    '' );
FILE_SCHEMA (( 'CONFIG_CONTROL_DESIGN' ));
ENDSEC;

DATA;
#1 = CARTESIAN_POINT ( 'NONE',  ( 0.000000000000000000, 0.000000000000000000, 200.0000000000000000 ) ) ;
#2 = AXIS2_PLACEMENT_3D ( 'NONE', #38, #171, #64 ) ;
#3 = CIRCLE ( 'NONE', #185, 5.000000000000000000 ) ;
#4 = CALENDAR_DATE ( 2023, 13, 2 ) ;
#5 = AXIS2_PLACEMENT_3D ( 'NONE', #173, #44, #125 ) ;
#6 = DIRECTION ( 'NONE',  ( -1.000000000000000000, 0.000000000000000000, 0.000000000000000000 ) ) ;
#7 = PERSON_AND_ORGANIZATION_ROLE ( 'creator' ) ;
#8 = ADVANCED_FACE ( 'NONE', ( #187 ), #167, .T. ) ;
#9 = PERSON_AND_ORGANIZATION ( #85, #58 ) ;
#10 = PLANE ( 'NONE',  #15 ) ;
#11 = LOCAL_TIME ( 11, 15, 47.00000000000000000, #63 ) ;
#12 = VERTEX_POINT ( 'NONE', #96 ) ;
#13 = AXIS2_PLACEMENT_3D ( 'NONE', #119, #215, #60 ) ;
#14 = EDGE_LOOP ( 'NONE', ( #129, #34, #71, #49 ) ) ;
#15 = AXIS2_PLACEMENT_3D ( 'NONE', #241, #70, #148 ) ;
#16 = EDGE_LOOP ( 'NONE', ( #33, #133, #92, #248 ) ) ;
#17 = CARTESIAN_POINT ( 'NONE',  ( -5.000000000000000000, 0.000000000000000000, 200.0000000000000000 ) ) ;
#18 = CLOSED_SHELL ( 'NONE', ( #87, #8, #156, #50, #139, #226, #180 ) ) ;
#19 = CARTESIAN_POINT ( 'NONE',  ( -8.000000000000000000, 0.000000000000000000, 5.000000000000000000 ) ) ;
#20 = DIRECTION ( 'NONE',  ( -0.000000000000000000, -0.000000000000000000, -1.000000000000000000 ) ) ;
#21 = CARTESIAN_POINT ( 'NONE',  ( 0.000000000000000000, 0.000000000000000000, 0.000000000000000000 ) ) ;
#22 = DATE_AND_TIME ( #218, #11 ) ;
#23 = PERSON_AND_ORGANIZATION ( #85, #58 ) ;
#24 = APPROVAL ( #240, 'NEURÈENÝ' ) ;
#25 = DIRECTION ( 'NONE',  ( 0.000000000000000000, 0.000000000000000000, 1.000000000000000000 ) ) ;
#26 = APPLICATION_PROTOCOL_DEFINITION ( 'international standard', 'config_control_design', 1994, #56 ) ;
#27 = CIRCLE ( 'NONE', #164, 5.000000000000000000 ) ;
#28 = CARTESIAN_POINT ( 'NONE',  ( 0.000000000000000000, 0.000000000000000000, 0.000000000000000000 ) ) ;
#29 = CARTESIAN_POINT ( 'NONE',  ( 0.000000000000000000, 0.000000000000000000, 5.000000000000000000 ) ) ;
#30 = SECURITY_CLASSIFICATION_LEVEL ( 'unclassified' ) ;
#31 = ORIENTED_EDGE ( 'NONE', *, *, #145, .F. ) ;
#32 = CC_DESIGN_APPROVAL ( #78, ( #183 ) ) ;
#33 = ORIENTED_EDGE ( 'NONE', *, *, #90, .F. ) ;
#34 = ORIENTED_EDGE ( 'NONE', *, *, #48, .F. ) ;
#35 = APPROVAL_STATUS ( 'not_yet_approved' ) ;
#36 = VERTEX_POINT ( 'NONE', #208 ) ;
#37 = AXIS2_PLACEMENT_3D ( 'NONE', #28, #199, #216 ) ;
#38 = CARTESIAN_POINT ( 'NONE',  ( 0.000000000000000000, 0.000000000000000000, 5.000000000000000000 ) ) ;
#39 = LINE ( 'NONE', #234, #147 ) ;
#40 = DIRECTION ( 'NONE',  ( 0.000000000000000000, 0.000000000000000000, 1.000000000000000000 ) ) ;
#41 = EDGE_CURVE ( 'NONE', #111, #109, #252, .T. ) ;
#42 = MECHANICAL_CONTEXT ( 'NONE', #56, 'mechanical' ) ;
#43 = CC_DESIGN_DATE_AND_TIME_ASSIGNMENT ( #22, #161, ( #183 ) ) ;
#44 = DIRECTION ( 'NONE',  ( -0.000000000000000000, -0.000000000000000000, -1.000000000000000000 ) ) ;
#45 = EDGE_CURVE ( 'NONE', #169, #109, #103, .T. ) ;
#46 = PERSON_AND_ORGANIZATION ( #85, #58 ) ;
#47 = CARTESIAN_POINT ( 'NONE',  ( 5.000000000000000000, 6.123233995736766282E-16, 200.0000000000000000 ) ) ;
#48 = EDGE_CURVE ( 'NONE', #12, #111, #200, .T. ) ;
#49 = ORIENTED_EDGE ( 'NONE', *, *, #45, .T. ) ;
#50 = ADVANCED_FACE ( 'NONE', ( #236, #196 ), #213, .T. ) ;
#51 = ORIENTED_EDGE ( 'NONE', *, *, #108, .F. ) ;
#52 = SECURITY_CLASSIFICATION ( '', '', #30 ) ;
#53 = DIRECTION ( 'NONE',  ( -1.000000000000000000, 0.000000000000000000, 0.000000000000000000 ) ) ;
#54 = PERSON_AND_ORGANIZATION ( #85, #58 ) ;
#55 = EDGE_LOOP ( 'NONE', ( #153, #251, #188, #170 ) ) ;
#56 = APPLICATION_CONTEXT ( 'configuration controlled 3d designs of mechanical parts and assemblies' ) ;
#57 = ORIENTED_EDGE ( 'NONE', *, *, #108, .T. ) ;
#58 = ORGANIZATION ( 'NEURÈENÝ', 'NEURÈENÝ', '' ) ;
#59 = CALENDAR_DATE ( 2023, 13, 2 ) ;
#60 = DIRECTION ( 'NONE',  ( 1.000000000000000000, 0.000000000000000000, 0.000000000000000000 ) ) ;
#61 = EDGE_CURVE ( 'NONE', #12, #169, #116, .T. ) ;
#62 = FACE_OUTER_BOUND ( 'NONE', #165, .T. ) ;
#63 = COORDINATED_UNIVERSAL_TIME_OFFSET ( 1, 0, .AHEAD. ) ;
#64 = DIRECTION ( 'NONE',  ( 1.000000000000000000, 0.000000000000000000, 0.000000000000000000 ) ) ;
#65 = APPROVAL_DATE_TIME ( #83, #24 ) ;
#66 = CIRCLE ( 'NONE', #144, 8.000000000000000000 ) ;
#67 = DIRECTION ( 'NONE',  ( 1.000000000000000000, 0.000000000000000000, 0.000000000000000000 ) ) ;
#68 = DATE_AND_TIME ( #178, #198 ) ;
#69 = CYLINDRICAL_SURFACE ( 'NONE', #205, 8.000000000000000000 ) ;
#70 = DIRECTION ( 'NONE',  ( 0.000000000000000000, 0.000000000000000000, 1.000000000000000000 ) ) ;
#71 = ORIENTED_EDGE ( 'NONE', *, *, #61, .T. ) ;
#72 = EDGE_CURVE ( 'NONE', #204, #36, #225, .T. ) ;
#73 = COORDINATED_UNIVERSAL_TIME_OFFSET ( 1, 0, .AHEAD. ) ;
#74 = ORIENTED_EDGE ( 'NONE', *, *, #179, .T. ) ;
#75 = LOCAL_TIME ( 11, 15, 47.00000000000000000, #189 ) ;
#76 = DIRECTION ( 'NONE',  ( -0.000000000000000000, -0.000000000000000000, -1.000000000000000000 ) ) ;
#77 = ORIENTED_EDGE ( 'NONE', *, *, #45, .F. ) ;
#78 = APPROVAL ( #120, 'NEURÈENÝ' ) ;
#79 = DIRECTION ( 'NONE',  ( 0.000000000000000000, 0.000000000000000000, 1.000000000000000000 ) ) ;
#80 = DIRECTION ( 'NONE',  ( 1.000000000000000000, 0.000000000000000000, 0.000000000000000000 ) ) ;
#81 = CC_DESIGN_SECURITY_CLASSIFICATION ( #52, ( #176 ) ) ;
#82 = DIRECTION ( 'NONE',  ( 1.000000000000000000, 0.000000000000000000, -0.000000000000000000 ) ) ;
#83 = DATE_AND_TIME ( #4, #101 ) ;
#84 = CARTESIAN_POINT ( 'NONE',  ( 5.000000000000000000, 6.123233995736766282E-16, 200.0000000000000000 ) ) ;
#85 = PERSON ( 'NEURÈENÝ', 'NEURÈENÝ', 'NEURÈENÝ', ('NEURÈENÝ'), ('NEURÈENÝ'), ('NEURÈENÝ') ) ;
#86 = PERSON_AND_ORGANIZATION_ROLE ( 'design_supplier' ) ;
#87 = ADVANCED_FACE ( 'NONE', ( #157 ), #191, .T. ) ;
#88 = ORIENTED_EDGE ( 'NONE', *, *, #72, .F. ) ;
#89 = EDGE_LOOP ( 'NONE', ( #88, #31 ) ) ;
#90 = EDGE_CURVE ( 'NONE', #111, #12, #66, .T. ) ;
#91 = AXIS2_PLACEMENT_3D ( 'NONE', #192, #136, #117 ) ;
#92 = ORIENTED_EDGE ( 'NONE', *, *, #255, .T. ) ;
#93 = AXIS2_PLACEMENT_3D ( 'NONE', #190, #254, #239 ) ;
#94 = APPROVAL_PERSON_ORGANIZATION ( #23, #24, #104 ) ;
#95 = DATE_AND_TIME ( #59, #75 ) ;
#96 = CARTESIAN_POINT ( 'NONE',  ( -8.000000000000000000, 0.000000000000000000, 5.000000000000000000 ) ) ;
#97 = CC_DESIGN_PERSON_AND_ORGANIZATION_ASSIGNMENT ( #46, #86, ( #176 ) ) ;
#98 = VECTOR ( 'NONE', #160, 1000.000000000000000 ) ;
#99 = APPROVAL_DATE_TIME ( #95, #174 ) ;
#100 = CARTESIAN_POINT ( 'NONE',  ( 0.000000000000000000, 0.000000000000000000, 0.000000000000000000 ) ) ;
#101 = LOCAL_TIME ( 11, 15, 47.00000000000000000, #175 ) ;
#102 = PERSON_AND_ORGANIZATION_ROLE ( 'design_owner' ) ;
#103 = CIRCLE ( 'NONE', #137, 8.000000000000000000 ) ;
#104 = APPROVAL_ROLE ( '' ) ;
#105 = FACE_OUTER_BOUND ( 'NONE', #14, .T. ) ;
#106 = COORDINATED_UNIVERSAL_TIME_OFFSET ( 1, 0, .AHEAD. ) ;
#107 = VERTEX_POINT ( 'NONE', #17 ) ;
#108 = EDGE_CURVE ( 'NONE', #224, #107, #163, .T. ) ;
#109 = VERTEX_POINT ( 'NONE', #138 ) ;
#110 = UNCERTAINTY_MEASURE_WITH_UNIT (LENGTH_MEASURE( 1.000000000000000082E-05 ), #122, 'distance_accuracy_value', 'NONE');
#111 = VERTEX_POINT ( 'NONE', #214 ) ;
#112 = DIRECTION ( 'NONE',  ( -0.000000000000000000, -0.000000000000000000, -1.000000000000000000 ) ) ;
#113 = CC_DESIGN_PERSON_AND_ORGANIZATION_ASSIGNMENT ( #143, #7, ( #176 ) ) ;
#114 = DATE_AND_TIME ( #207, #130 ) ;
#115 = DIRECTION ( 'NONE',  ( 1.000000000000000000, 0.000000000000000000, 0.000000000000000000 ) ) ;
#116 = LINE ( 'NONE', #19, #98 ) ;
#117 = DIRECTION ( 'NONE',  ( 1.000000000000000000, 0.000000000000000000, 0.000000000000000000 ) ) ;
#118 = AXIS2_PLACEMENT_3D ( 'NONE', #235, #242, #67 ) ;
#119 = CARTESIAN_POINT ( 'NONE',  ( 0.000000000000000000, 0.000000000000000000, 200.0000000000000000 ) ) ;
#120 = APPROVAL_STATUS ( 'not_yet_approved' ) ;
#121 = APPLICATION_PROTOCOL_DEFINITION ( 'international standard', 'config_control_design', 1994, #223 ) ;
#122 =( LENGTH_UNIT ( ) NAMED_UNIT ( * ) SI_UNIT ( .MILLI., .METRE. ) );
#123 =( GEOMETRIC_REPRESENTATION_CONTEXT ( 3 ) GLOBAL_UNCERTAINTY_ASSIGNED_CONTEXT ( ( #110 ) ) GLOBAL_UNIT_ASSIGNED_CONTEXT ( ( #122, #162, #126 ) ) REPRESENTATION_CONTEXT ( 'NONE', 'WORKASPACE' ) );
#124 = CIRCLE ( 'NONE', #37, 8.000000000000000000 ) ;
#125 = DIRECTION ( 'NONE',  ( -1.000000000000000000, 0.000000000000000000, 0.000000000000000000 ) ) ;
#126 =( NAMED_UNIT ( * ) SI_UNIT ( $, .STERADIAN. ) SOLID_ANGLE_UNIT ( ) );
#127 = DIRECTION ( 'NONE',  ( 0.000000000000000000, 0.000000000000000000, 1.000000000000000000 ) ) ;
#128 = EDGE_CURVE ( 'NONE', #107, #204, #39, .T. ) ;
#129 = ORIENTED_EDGE ( 'NONE', *, *, #41, .F. ) ;
#130 = LOCAL_TIME ( 11, 15, 47.00000000000000000, #73 ) ;
#131 = DESIGN_CONTEXT ( 'detailed design', #223, 'design' ) ;
#132 = EDGE_CURVE ( 'NONE', #107, #224, #3, .T. ) ;
#133 = ORIENTED_EDGE ( 'NONE', *, *, #41, .T. ) ;
#134 = EDGE_LOOP ( 'NONE', ( #155, #57 ) ) ;
#135 = CARTESIAN_POINT ( 'NONE',  ( 8.000000000000000000, 9.797174393178825657E-16, 5.000000000000000000 ) ) ;
#136 = DIRECTION ( 'NONE',  ( 0.000000000000000000, 0.000000000000000000, 1.000000000000000000 ) ) ;
#137 = AXIS2_PLACEMENT_3D ( 'NONE', #100, #233, #230 ) ;
#138 = CARTESIAN_POINT ( 'NONE',  ( 8.000000000000000000, 9.797174393178825657E-16, 0.000000000000000000 ) ) ;
#139 = ADVANCED_FACE ( 'NONE', ( #62 ), #194, .F. ) ;
#140 = FACE_OUTER_BOUND ( 'NONE', #55, .T. ) ;
#141 = DIRECTION ( 'NONE',  ( -0.000000000000000000, -0.000000000000000000, -1.000000000000000000 ) ) ;
#142 = PRODUCT ( '1155', '1155', '', ( #42 ) ) ;
#143 = PERSON_AND_ORGANIZATION ( #85, #58 ) ;
#144 = AXIS2_PLACEMENT_3D ( 'NONE', #158, #79, #115 ) ;
#145 = EDGE_CURVE ( 'NONE', #36, #204, #27, .T. ) ;
#146 = APPROVAL_DATE_TIME ( #68, #78 ) ;
#147 = VECTOR ( 'NONE', #20, 1000.000000000000000 ) ;
#148 = DIRECTION ( 'NONE',  ( 1.000000000000000000, 0.000000000000000000, -0.000000000000000000 ) ) ;
#149 = PERSON_AND_ORGANIZATION ( #85, #58 ) ;
#150 = EDGE_LOOP ( 'NONE', ( #51, #74, #227, #249 ) ) ;
#151 = CARTESIAN_POINT ( 'NONE',  ( 0.000000000000000000, 0.000000000000000000, 5.000000000000000000 ) ) ;
#152 = DATE_TIME_ROLE ( 'classification_date' ) ;
#153 = ORIENTED_EDGE ( 'NONE', *, *, #179, .F. ) ;
#154 = APPROVAL_ROLE ( '' ) ;
#155 = ORIENTED_EDGE ( 'NONE', *, *, #132, .T. ) ;
#156 = ADVANCED_FACE ( 'NONE', ( #105 ), #69, .T. ) ;
#157 = FACE_OUTER_BOUND ( 'NONE', #150, .T. ) ;
#158 = CARTESIAN_POINT ( 'NONE',  ( 0.000000000000000000, 0.000000000000000000, 5.000000000000000000 ) ) ;
#159 = APPROVAL_ROLE ( '' ) ;
#160 = DIRECTION ( 'NONE',  ( -0.000000000000000000, -0.000000000000000000, -1.000000000000000000 ) ) ;
#161 = DATE_TIME_ROLE ( 'creation_date' ) ;
#162 =( NAMED_UNIT ( * ) PLANE_ANGLE_UNIT ( ) SI_UNIT ( $, .RADIAN. ) );
#163 = CIRCLE ( 'NONE', #13, 5.000000000000000000 ) ;
#164 = AXIS2_PLACEMENT_3D ( 'NONE', #29, #127, #177 ) ;
#165 = EDGE_LOOP ( 'NONE', ( #77, #166 ) ) ;
#166 = ORIENTED_EDGE ( 'NONE', *, *, #255, .F. ) ;
#167 = CYLINDRICAL_SURFACE ( 'NONE', #209, 8.000000000000000000 ) ;
#168 = CC_DESIGN_PERSON_AND_ORGANIZATION_ASSIGNMENT ( #149, #232, ( #52 ) ) ;
#169 = VERTEX_POINT ( 'NONE', #184 ) ;
#170 = ORIENTED_EDGE ( 'NONE', *, *, #72, .T. ) ;
#171 = DIRECTION ( 'NONE',  ( 0.000000000000000000, 0.000000000000000000, 1.000000000000000000 ) ) ;
#172 = DIRECTION ( 'NONE',  ( 0.000000000000000000, 0.000000000000000000, 1.000000000000000000 ) ) ;
#173 = CARTESIAN_POINT ( 'NONE',  ( 0.000000000000000000, 0.000000000000000000, 200.0000000000000000 ) ) ;
#174 = APPROVAL ( #35, 'NEURÈENÝ' ) ;
#175 = COORDINATED_UNIVERSAL_TIME_OFFSET ( 1, 0, .AHEAD. ) ;
#176 = PRODUCT_DEFINITION_FORMATION_WITH_SPECIFIED_SOURCE ( 'LIBOVOLNÝ', '', #142, .NOT_KNOWN. ) ;
#177 = DIRECTION ( 'NONE',  ( 1.000000000000000000, 0.000000000000000000, 0.000000000000000000 ) ) ;
#178 = CALENDAR_DATE ( 2023, 13, 2 ) ;
#179 = EDGE_CURVE ( 'NONE', #224, #36, #201, .T. ) ;
#180 = ADVANCED_FACE ( 'NONE', ( #245 ), #10, .T. ) ;
#181 = MANIFOLD_SOLID_BREP ( 'Pøidat vysunutím3', #18 ) ;
#182 = DIRECTION ( 'NONE',  ( -0.000000000000000000, -0.000000000000000000, -1.000000000000000000 ) ) ;
#183 = PRODUCT_DEFINITION ( 'NEZNÁMÝ', '', #176, #131 ) ;
#184 = CARTESIAN_POINT ( 'NONE',  ( -8.000000000000000000, 0.000000000000000000, 0.000000000000000000 ) ) ;
#185 = AXIS2_PLACEMENT_3D ( 'NONE', #1, #172, #80 ) ;
#186 = ADVANCED_BREP_SHAPE_REPRESENTATION ( '1155', ( #181, #118 ), #123 ) ;
#187 = FACE_OUTER_BOUND ( 'NONE', #16, .T. ) ;
#188 = ORIENTED_EDGE ( 'NONE', *, *, #128, .T. ) ;
#189 = COORDINATED_UNIVERSAL_TIME_OFFSET ( 1, 0, .AHEAD. ) ;
#190 = CARTESIAN_POINT ( 'NONE',  ( 0.000000000000000000, 0.000000000000000000, 200.0000000000000000 ) ) ;
#191 = CYLINDRICAL_SURFACE ( 'NONE', #93, 5.000000000000000000 ) ;
#192 = CARTESIAN_POINT ( 'NONE',  ( 0.000000000000000000, 0.000000000000000000, 5.000000000000000000 ) ) ;
#193 = CC_DESIGN_APPROVAL ( #174, ( #52 ) ) ;
#194 = PLANE ( 'NONE',  #212 ) ;
#195 = PERSON_AND_ORGANIZATION ( #85, #58 ) ;
#196 = FACE_OUTER_BOUND ( 'NONE', #206, .T. ) ;
#197 = PERSON_AND_ORGANIZATION ( #85, #58 ) ;
#198 = LOCAL_TIME ( 11, 15, 47.00000000000000000, #106 ) ;
#199 = DIRECTION ( 'NONE',  ( 0.000000000000000000, 0.000000000000000000, 1.000000000000000000 ) ) ;
#200 = CIRCLE ( 'NONE', #91, 8.000000000000000000 ) ;
#201 = LINE ( 'NONE', #84, #231 ) ;
#202 = CC_DESIGN_PERSON_AND_ORGANIZATION_ASSIGNMENT ( #9, #102, ( #142 ) ) ;
#203 = CC_DESIGN_PERSON_AND_ORGANIZATION_ASSIGNMENT ( #195, #217, ( #183 ) ) ;
#204 = VERTEX_POINT ( 'NONE', #221 ) ;
#205 = AXIS2_PLACEMENT_3D ( 'NONE', #219, #141, #6 ) ;
#206 = EDGE_LOOP ( 'NONE', ( #210, #228 ) ) ;
#207 = CALENDAR_DATE ( 2023, 13, 2 ) ;
#208 = CARTESIAN_POINT ( 'NONE',  ( 5.000000000000000000, 6.123233995736766282E-16, 5.000000000000000000 ) ) ;
#209 = AXIS2_PLACEMENT_3D ( 'NONE', #151, #112, #53 ) ;
#210 = ORIENTED_EDGE ( 'NONE', *, *, #48, .T. ) ;
#211 = CARTESIAN_POINT ( 'NONE',  ( 0.000000000000000000, 0.000000000000000000, 5.000000000000000000 ) ) ;
#212 = AXIS2_PLACEMENT_3D ( 'NONE', #21, #25, #244 ) ;
#213 = PLANE ( 'NONE',  #246 ) ;
#214 = CARTESIAN_POINT ( 'NONE',  ( 8.000000000000000000, 9.797174393178825657E-16, 5.000000000000000000 ) ) ;
#215 = DIRECTION ( 'NONE',  ( 0.000000000000000000, 0.000000000000000000, 1.000000000000000000 ) ) ;
#216 = DIRECTION ( 'NONE',  ( 1.000000000000000000, 0.000000000000000000, 0.000000000000000000 ) ) ;
#217 = PERSON_AND_ORGANIZATION_ROLE ( 'creator' ) ;
#218 = CALENDAR_DATE ( 2023, 13, 2 ) ;
#219 = CARTESIAN_POINT ( 'NONE',  ( 0.000000000000000000, 0.000000000000000000, 5.000000000000000000 ) ) ;
#220 = PRODUCT_DEFINITION_SHAPE ( 'NONE', 'NONE',  #183 ) ;
#221 = CARTESIAN_POINT ( 'NONE',  ( -5.000000000000000000, 0.000000000000000000, 5.000000000000000000 ) ) ;
#222 = CC_DESIGN_DATE_AND_TIME_ASSIGNMENT ( #114, #152, ( #52 ) ) ;
#223 = APPLICATION_CONTEXT ( 'configuration controlled 3d designs of mechanical parts and assemblies' ) ;
#224 = VERTEX_POINT ( 'NONE', #47 ) ;
#225 = CIRCLE ( 'NONE', #2, 5.000000000000000000 ) ;
#226 = ADVANCED_FACE ( 'NONE', ( #140 ), #237, .T. ) ;
#227 = ORIENTED_EDGE ( 'NONE', *, *, #145, .T. ) ;
#228 = ORIENTED_EDGE ( 'NONE', *, *, #90, .T. ) ;
#229 = PRODUCT_RELATED_PRODUCT_CATEGORY ( 'detail', '', ( #142 ) ) ;
#230 = DIRECTION ( 'NONE',  ( 1.000000000000000000, 0.000000000000000000, 0.000000000000000000 ) ) ;
#231 = VECTOR ( 'NONE', #182, 1000.000000000000000 ) ;
#232 = PERSON_AND_ORGANIZATION_ROLE ( 'classification_officer' ) ;
#233 = DIRECTION ( 'NONE',  ( 0.000000000000000000, 0.000000000000000000, 1.000000000000000000 ) ) ;
#234 = CARTESIAN_POINT ( 'NONE',  ( -5.000000000000000000, 0.000000000000000000, 200.0000000000000000 ) ) ;
#235 = CARTESIAN_POINT ( 'NONE',  ( 0.000000000000000000, 0.000000000000000000, 0.000000000000000000 ) ) ;
#236 = FACE_BOUND ( 'NONE', #89, .T. ) ;
#237 = CYLINDRICAL_SURFACE ( 'NONE', #5, 5.000000000000000000 ) ;
#238 = APPROVAL_PERSON_ORGANIZATION ( #54, #174, #154 ) ;
#239 = DIRECTION ( 'NONE',  ( -1.000000000000000000, 0.000000000000000000, 0.000000000000000000 ) ) ;
#240 = APPROVAL_STATUS ( 'not_yet_approved' ) ;
#241 = CARTESIAN_POINT ( 'NONE',  ( 0.000000000000000000, 0.000000000000000000, 200.0000000000000000 ) ) ;
#242 = DIRECTION ( 'NONE',  ( 0.000000000000000000, 0.000000000000000000, 1.000000000000000000 ) ) ;
#243 = APPROVAL_PERSON_ORGANIZATION ( #197, #78, #159 ) ;
#244 = DIRECTION ( 'NONE',  ( 1.000000000000000000, 0.000000000000000000, -0.000000000000000000 ) ) ;
#245 = FACE_OUTER_BOUND ( 'NONE', #134, .T. ) ;
#246 = AXIS2_PLACEMENT_3D ( 'NONE', #211, #40, #82 ) ;
#247 = CC_DESIGN_APPROVAL ( #24, ( #176 ) ) ;
#248 = ORIENTED_EDGE ( 'NONE', *, *, #61, .F. ) ;
#249 = ORIENTED_EDGE ( 'NONE', *, *, #128, .F. ) ;
#250 = VECTOR ( 'NONE', #76, 1000.000000000000000 ) ;
#251 = ORIENTED_EDGE ( 'NONE', *, *, #132, .F. ) ;
#252 = LINE ( 'NONE', #135, #250 ) ;
#253 = SHAPE_DEFINITION_REPRESENTATION ( #220, #186 ) ;
#254 = DIRECTION ( 'NONE',  ( -0.000000000000000000, -0.000000000000000000, -1.000000000000000000 ) ) ;
#255 = EDGE_CURVE ( 'NONE', #109, #169, #124, .T. ) ;
ENDSEC;
END-ISO-10303-21;
