ISO-10303-21;
HEADER;
FILE_DESCRIPTION (( 'STEP AP203' ),
    '1' );
FILE_NAME ('0703.STEP',
    '2023-02-13T10:15:21',
    ( '' ),
    ( '' ),
    'SwSTEP 2.0',
    'SolidWorks 2019',
    '' );
FILE_SCHEMA (( 'CONFIG_CONTROL_DESIGN' ));
ENDSEC;

DATA;
#1 = DIRECTION ( 'NONE',  ( 1.000000000000000000, 0.000000000000000000, 0.000000000000000000 ) ) ;
#2 = CARTESIAN_POINT ( 'NONE',  ( 0.000000000000000000, 0.000000000000000000, 0.000000000000000000 ) ) ;
#3 = APPROVAL_STATUS ( 'not_yet_approved' ) ;
#4 = LINE ( 'NONE', #187, #217 ) ;
#5 = FACE_OUTER_BOUND ( 'NONE', #77, .T. ) ;
#6 = AXIS2_PLACEMENT_3D ( 'NONE', #168, #42, #172 ) ;
#7 = CARTESIAN_POINT ( 'NONE',  ( 0.000000000000000000, 0.000000000000000000, 0.000000000000000000 ) ) ;
#8 = CIRCLE ( 'NONE', #203, 5.000000000000000000 ) ;
#9 = COORDINATED_UNIVERSAL_TIME_OFFSET ( 1, 0, .AHEAD. ) ;
#10 = DIRECTION ( 'NONE',  ( 1.000000000000000000, 0.000000000000000000, 0.000000000000000000 ) ) ;
#11 = DATE_TIME_ROLE ( 'classification_date' ) ;
#12 = DIRECTION ( 'NONE',  ( 0.000000000000000000, 0.000000000000000000, 1.000000000000000000 ) ) ;
#13 = AXIS2_PLACEMENT_3D ( 'NONE', #113, #240, #59 ) ;
#14 = COORDINATED_UNIVERSAL_TIME_OFFSET ( 1, 0, .AHEAD. ) ;
#15 = AXIS2_PLACEMENT_3D ( 'NONE', #2, #167, #164 ) ;
#16 = CC_DESIGN_PERSON_AND_ORGANIZATION_ASSIGNMENT ( #212, #102, ( #89 ) ) ;
#17 = SECURITY_CLASSIFICATION ( '', '', #223 ) ;
#18 = DATE_AND_TIME ( #159, #202 ) ;
#19 = ORIENTED_EDGE ( 'NONE', *, *, #62, .F. ) ;
#20 = DIRECTION ( 'NONE',  ( 0.000000000000000000, 0.000000000000000000, 1.000000000000000000 ) ) ;
#21 = EDGE_CURVE ( 'NONE', #22, #253, #53, .T. ) ;
#22 = VERTEX_POINT ( 'NONE', #237 ) ;
#23 = APPLICATION_PROTOCOL_DEFINITION ( 'international standard', 'config_control_design', 1994, #44 ) ;
#24 = DIRECTION ( 'NONE',  ( 0.000000000000000000, 0.000000000000000000, 1.000000000000000000 ) ) ;
#25 = CARTESIAN_POINT ( 'NONE',  ( 0.000000000000000000, 0.000000000000000000, 5.000000000000000000 ) ) ;
#26 = APPLICATION_PROTOCOL_DEFINITION ( 'international standard', 'config_control_design', 1994, #138 ) ;
#27 = DIRECTION ( 'NONE',  ( -0.000000000000000000, -0.000000000000000000, -1.000000000000000000 ) ) ;
#28 = CALENDAR_DATE ( 2023, 13, 2 ) ;
#29 = CYLINDRICAL_SURFACE ( 'NONE', #124, 8.000000000000000000 ) ;
#30 = FACE_OUTER_BOUND ( 'NONE', #96, .T. ) ;
#31 = AXIS2_PLACEMENT_3D ( 'NONE', #211, #12, #10 ) ;
#32 = SHAPE_DEFINITION_REPRESENTATION ( #147, #72 ) ;
#33 = ORIENTED_EDGE ( 'NONE', *, *, #176, .T. ) ;
#34 = CARTESIAN_POINT ( 'NONE',  ( 5.000000000000000000, 6.123233995736766282E-16, 315.0000000000000000 ) ) ;
#35 = ORGANIZATION ( 'NEURÈENÝ', 'NEURÈENÝ', '' ) ;
#36 = EDGE_CURVE ( 'NONE', #248, #90, #43, .T. ) ;
#37 = CARTESIAN_POINT ( 'NONE',  ( 0.000000000000000000, 0.000000000000000000, 5.000000000000000000 ) ) ;
#38 = DATE_AND_TIME ( #210, #170 ) ;
#39 = APPROVAL ( #200, 'NEURÈENÝ' ) ;
#40 = CARTESIAN_POINT ( 'NONE',  ( -8.000000000000000000, 0.000000000000000000, 5.000000000000000000 ) ) ;
#41 = DIRECTION ( 'NONE',  ( 0.000000000000000000, 0.000000000000000000, 1.000000000000000000 ) ) ;
#42 = DIRECTION ( 'NONE',  ( -0.000000000000000000, -0.000000000000000000, -1.000000000000000000 ) ) ;
#43 = CIRCLE ( 'NONE', #232, 5.000000000000000000 ) ;
#44 = APPLICATION_CONTEXT ( 'configuration controlled 3d designs of mechanical parts and assemblies' ) ;
#45 = APPROVAL_PERSON_ORGANIZATION ( #247, #39, #92 ) ;
#46 = ORIENTED_EDGE ( 'NONE', *, *, #227, .T. ) ;
#47 = EDGE_LOOP ( 'NONE', ( #145, #93 ) ) ;
#48 = CC_DESIGN_PERSON_AND_ORGANIZATION_ASSIGNMENT ( #54, #83, ( #251 ) ) ;
#49 = ORIENTED_EDGE ( 'NONE', *, *, #227, .F. ) ;
#50 = EDGE_CURVE ( 'NONE', #90, #248, #127, .T. ) ;
#51 = DIRECTION ( 'NONE',  ( 0.000000000000000000, 0.000000000000000000, 1.000000000000000000 ) ) ;
#52 = CARTESIAN_POINT ( 'NONE',  ( 0.000000000000000000, 0.000000000000000000, 5.000000000000000000 ) ) ;
#53 = CIRCLE ( 'NONE', #184, 8.000000000000000000 ) ;
#54 = PERSON_AND_ORGANIZATION ( #230, #35 ) ;
#55 = FACE_OUTER_BOUND ( 'NONE', #122, .T. ) ;
#56 = EDGE_CURVE ( 'NONE', #253, #71, #4, .T. ) ;
#57 = CARTESIAN_POINT ( 'NONE',  ( 0.000000000000000000, 0.000000000000000000, 5.000000000000000000 ) ) ;
#58 = COORDINATED_UNIVERSAL_TIME_OFFSET ( 1, 0, .AHEAD. ) ;
#59 = DIRECTION ( 'NONE',  ( -1.000000000000000000, 0.000000000000000000, 0.000000000000000000 ) ) ;
#60 = AXIS2_PLACEMENT_3D ( 'NONE', #205, #20, #99 ) ;
#61 = PERSON_AND_ORGANIZATION ( #230, #35 ) ;
#62 = EDGE_CURVE ( 'NONE', #95, #71, #198, .T. ) ;
#63 = CYLINDRICAL_SURFACE ( 'NONE', #66, 8.000000000000000000 ) ;
#64 = AXIS2_PLACEMENT_3D ( 'NONE', #112, #192, #130 ) ;
#65 = PLANE ( 'NONE',  #64 ) ;
#66 = AXIS2_PLACEMENT_3D ( 'NONE', #125, #27, #153 ) ;
#67 = CC_DESIGN_DATE_AND_TIME_ASSIGNMENT ( #133, #11, ( #17 ) ) ;
#68 = LOCAL_TIME ( 11, 15, 21.00000000000000000, #9 ) ;
#69 = ORIENTED_EDGE ( 'NONE', *, *, #176, .F. ) ;
#70 = ORIENTED_EDGE ( 'NONE', *, *, #56, .T. ) ;
#71 = VERTEX_POINT ( 'NONE', #142 ) ;
#72 = ADVANCED_BREP_SHAPE_REPRESENTATION ( '0703', ( #82, #94 ), #238 ) ;
#73 = CARTESIAN_POINT ( 'NONE',  ( 0.000000000000000000, 0.000000000000000000, 0.000000000000000000 ) ) ;
#74 = DIRECTION ( 'NONE',  ( 0.000000000000000000, 0.000000000000000000, 1.000000000000000000 ) ) ;
#75 = CC_DESIGN_PERSON_AND_ORGANIZATION_ASSIGNMENT ( #110, #118, ( #17 ) ) ;
#76 = CC_DESIGN_APPROVAL ( #39, ( #17 ) ) ;
#77 = EDGE_LOOP ( 'NONE', ( #49, #250, #204, #229 ) ) ;
#78 = DATE_AND_TIME ( #194, #68 ) ;
#79 = EDGE_CURVE ( 'NONE', #103, #90, #218, .T. ) ;
#80 = DIRECTION ( 'NONE',  ( -0.000000000000000000, -0.000000000000000000, -1.000000000000000000 ) ) ;
#81 = CARTESIAN_POINT ( 'NONE',  ( 5.000000000000000000, 6.123233995736766282E-16, 5.000000000000000000 ) ) ;
#82 = MANIFOLD_SOLID_BREP ( 'Pøidat vysunutím3', #91 ) ;
#83 = PERSON_AND_ORGANIZATION_ROLE ( 'creator' ) ;
#84 = CARTESIAN_POINT ( 'NONE',  ( -5.000000000000000000, 0.000000000000000000, 315.0000000000000000 ) ) ;
#85 = EDGE_CURVE ( 'NONE', #71, #95, #137, .T. ) ;
#86 = DIRECTION ( 'NONE',  ( 1.000000000000000000, 0.000000000000000000, 0.000000000000000000 ) ) ;
#87 = FACE_OUTER_BOUND ( 'NONE', #185, .T. ) ;
#88 = FACE_OUTER_BOUND ( 'NONE', #219, .T. ) ;
#89 = PRODUCT_DEFINITION ( 'NEZNÁMÝ', '', #251, #214 ) ;
#90 = VERTEX_POINT ( 'NONE', #81 ) ;
#91 = CLOSED_SHELL ( 'NONE', ( #189, #246, #117, #169, #235, #252, #215 ) ) ;
#92 = APPROVAL_ROLE ( '' ) ;
#93 = ORIENTED_EDGE ( 'NONE', *, *, #50, .F. ) ;
#94 = AXIS2_PLACEMENT_3D ( 'NONE', #144, #51, #186 ) ;
#95 = VERTEX_POINT ( 'NONE', #207 ) ;
#96 = EDGE_LOOP ( 'NONE', ( #236, #136, #201, #179 ) ) ;
#97 = MECHANICAL_CONTEXT ( 'NONE', #44, 'mechanical' ) ;
#98 = LOCAL_TIME ( 11, 15, 21.00000000000000000, #242 ) ;
#99 = DIRECTION ( 'NONE',  ( 1.000000000000000000, 0.000000000000000000, 0.000000000000000000 ) ) ;
#100 = VECTOR ( 'NONE', #255, 1000.000000000000000 ) ;
#101 = ORIENTED_EDGE ( 'NONE', *, *, #21, .T. ) ;
#102 = PERSON_AND_ORGANIZATION_ROLE ( 'creator' ) ;
#103 = VERTEX_POINT ( 'NONE', #196 ) ;
#104 = PLANE ( 'NONE',  #166 ) ;
#105 = VECTOR ( 'NONE', #221, 1000.000000000000000 ) ;
#106 = APPROVAL_DATE_TIME ( #208, #156 ) ;
#107 = DIRECTION ( 'NONE',  ( 1.000000000000000000, 0.000000000000000000, 0.000000000000000000 ) ) ;
#108 = EDGE_CURVE ( 'NONE', #162, #103, #8, .T. ) ;
#109 = PRODUCT ( '0703', '0703', '', ( #97 ) ) ;
#110 = PERSON_AND_ORGANIZATION ( #230, #35 ) ;
#111 = DIRECTION ( 'NONE',  ( -0.000000000000000000, -0.000000000000000000, -1.000000000000000000 ) ) ;
#112 = CARTESIAN_POINT ( 'NONE',  ( 0.000000000000000000, 0.000000000000000000, 315.0000000000000000 ) ) ;
#113 = CARTESIAN_POINT ( 'NONE',  ( 0.000000000000000000, 0.000000000000000000, 315.0000000000000000 ) ) ;
#114 = COORDINATED_UNIVERSAL_TIME_OFFSET ( 1, 0, .AHEAD. ) ;
#115 = ORIENTED_EDGE ( 'NONE', *, *, #108, .F. ) ;
#116 = ORIENTED_EDGE ( 'NONE', *, *, #85, .T. ) ;
#117 = ADVANCED_FACE ( 'NONE', ( #30 ), #63, .T. ) ;
#118 = PERSON_AND_ORGANIZATION_ROLE ( 'classification_officer' ) ;
#119 = CC_DESIGN_SECURITY_CLASSIFICATION ( #17, ( #251 ) ) ;
#120 = CIRCLE ( 'NONE', #31, 5.000000000000000000 ) ;
#121 = PERSON_AND_ORGANIZATION ( #230, #35 ) ;
#122 = EDGE_LOOP ( 'NONE', ( #101, #33 ) ) ;
#123 = DIRECTION ( 'NONE',  ( 0.000000000000000000, 0.000000000000000000, 1.000000000000000000 ) ) ;
#124 = AXIS2_PLACEMENT_3D ( 'NONE', #57, #177, #132 ) ;
#125 = CARTESIAN_POINT ( 'NONE',  ( 0.000000000000000000, 0.000000000000000000, 5.000000000000000000 ) ) ;
#126 = CARTESIAN_POINT ( 'NONE',  ( -5.000000000000000000, 0.000000000000000000, 315.0000000000000000 ) ) ;
#127 = CIRCLE ( 'NONE', #60, 5.000000000000000000 ) ;
#128 =( LENGTH_UNIT ( ) NAMED_UNIT ( * ) SI_UNIT ( .MILLI., .METRE. ) );
#129 = APPROVAL_ROLE ( '' ) ;
#130 = DIRECTION ( 'NONE',  ( 1.000000000000000000, 0.000000000000000000, -0.000000000000000000 ) ) ;
#131 = PERSON_AND_ORGANIZATION_ROLE ( 'design_owner' ) ;
#132 = DIRECTION ( 'NONE',  ( -1.000000000000000000, 0.000000000000000000, 0.000000000000000000 ) ) ;
#133 = DATE_AND_TIME ( #160, #206 ) ;
#134 = CC_DESIGN_APPROVAL ( #156, ( #89 ) ) ;
#135 = EDGE_CURVE ( 'NONE', #162, #248, #155, .T. ) ;
#136 = ORIENTED_EDGE ( 'NONE', *, *, #21, .F. ) ;
#137 = CIRCLE ( 'NONE', #174, 8.000000000000000000 ) ;
#138 = APPLICATION_CONTEXT ( 'configuration controlled 3d designs of mechanical parts and assemblies' ) ;
#139 = ORIENTED_EDGE ( 'NONE', *, *, #108, .T. ) ;
#140 = CC_DESIGN_APPROVAL ( #149, ( #251 ) ) ;
#141 = ORIENTED_EDGE ( 'NONE', *, *, #79, .F. ) ;
#142 = CARTESIAN_POINT ( 'NONE',  ( 8.000000000000000000, 9.797174393178825657E-16, 0.000000000000000000 ) ) ;
#143 = CC_DESIGN_PERSON_AND_ORGANIZATION_ASSIGNMENT ( #121, #131, ( #109 ) ) ;
#144 = CARTESIAN_POINT ( 'NONE',  ( 0.000000000000000000, 0.000000000000000000, 0.000000000000000000 ) ) ;
#145 = ORIENTED_EDGE ( 'NONE', *, *, #36, .F. ) ;
#146 = APPROVAL_PERSON_ORGANIZATION ( #61, #149, #152 ) ;
#147 = PRODUCT_DEFINITION_SHAPE ( 'NONE', 'NONE',  #89 ) ;
#148 = CARTESIAN_POINT ( 'NONE',  ( 0.000000000000000000, 0.000000000000000000, 5.000000000000000000 ) ) ;
#149 = APPROVAL ( #244, 'NEURÈENÝ' ) ;
#150 = PERSON_AND_ORGANIZATION_ROLE ( 'design_supplier' ) ;
#151 = CARTESIAN_POINT ( 'NONE',  ( 8.000000000000000000, 9.797174393178825657E-16, 5.000000000000000000 ) ) ;
#152 = APPROVAL_ROLE ( '' ) ;
#153 = DIRECTION ( 'NONE',  ( -1.000000000000000000, 0.000000000000000000, 0.000000000000000000 ) ) ;
#154 = AXIS2_PLACEMENT_3D ( 'NONE', #25, #24, #107 ) ;
#155 = LINE ( 'NONE', #126, #158 ) ;
#156 = APPROVAL ( #3, 'NEURÈENÝ' ) ;
#157 = UNCERTAINTY_MEASURE_WITH_UNIT (LENGTH_MEASURE( 1.000000000000000082E-05 ), #128, 'distance_accuracy_value', 'NONE');
#158 = VECTOR ( 'NONE', #111, 1000.000000000000000 ) ;
#159 = CALENDAR_DATE ( 2023, 13, 2 ) ;
#160 = CALENDAR_DATE ( 2023, 13, 2 ) ;
#161 =( NAMED_UNIT ( * ) PLANE_ANGLE_UNIT ( ) SI_UNIT ( $, .RADIAN. ) );
#162 = VERTEX_POINT ( 'NONE', #84 ) ;
#163 = EDGE_CURVE ( 'NONE', #22, #95, #225, .T. ) ;
#164 = DIRECTION ( 'NONE',  ( 1.000000000000000000, 0.000000000000000000, 0.000000000000000000 ) ) ;
#165 =( NAMED_UNIT ( * ) SI_UNIT ( $, .STERADIAN. ) SOLID_ANGLE_UNIT ( ) );
#166 = AXIS2_PLACEMENT_3D ( 'NONE', #7, #239, #195 ) ;
#167 = DIRECTION ( 'NONE',  ( 0.000000000000000000, 0.000000000000000000, 1.000000000000000000 ) ) ;
#168 = CARTESIAN_POINT ( 'NONE',  ( 0.000000000000000000, 0.000000000000000000, 315.0000000000000000 ) ) ;
#169 = ADVANCED_FACE ( 'NONE', ( #226, #55 ), #209, .T. ) ;
#170 = LOCAL_TIME ( 11, 15, 21.00000000000000000, #58 ) ;
#171 = PERSON_AND_ORGANIZATION ( #230, #35 ) ;
#172 = DIRECTION ( 'NONE',  ( -1.000000000000000000, 0.000000000000000000, 0.000000000000000000 ) ) ;
#173 = PERSON_AND_ORGANIZATION ( #230, #35 ) ;
#174 = AXIS2_PLACEMENT_3D ( 'NONE', #73, #74, #233 ) ;
#175 = DIRECTION ( 'NONE',  ( 1.000000000000000000, 0.000000000000000000, -0.000000000000000000 ) ) ;
#176 = EDGE_CURVE ( 'NONE', #253, #22, #197, .T. ) ;
#177 = DIRECTION ( 'NONE',  ( -0.000000000000000000, -0.000000000000000000, -1.000000000000000000 ) ) ;
#178 = CARTESIAN_POINT ( 'NONE',  ( -5.000000000000000000, 0.000000000000000000, 5.000000000000000000 ) ) ;
#179 = ORIENTED_EDGE ( 'NONE', *, *, #62, .T. ) ;
#180 = ORIENTED_EDGE ( 'NONE', *, *, #36, .T. ) ;
#181 = ORIENTED_EDGE ( 'NONE', *, *, #163, .F. ) ;
#182 = ORIENTED_EDGE ( 'NONE', *, *, #135, .T. ) ;
#183 = DIRECTION ( 'NONE',  ( 0.000000000000000000, 0.000000000000000000, 1.000000000000000000 ) ) ;
#184 = AXIS2_PLACEMENT_3D ( 'NONE', #37, #123, #188 ) ;
#185 = EDGE_LOOP ( 'NONE', ( #19, #254 ) ) ;
#186 = DIRECTION ( 'NONE',  ( 1.000000000000000000, 0.000000000000000000, 0.000000000000000000 ) ) ;
#187 = CARTESIAN_POINT ( 'NONE',  ( 8.000000000000000000, 9.797174393178825657E-16, 5.000000000000000000 ) ) ;
#188 = DIRECTION ( 'NONE',  ( 1.000000000000000000, 0.000000000000000000, 0.000000000000000000 ) ) ;
#189 = ADVANCED_FACE ( 'NONE', ( #5 ), #245, .T. ) ;
#190 = DIRECTION ( 'NONE',  ( 0.000000000000000000, 0.000000000000000000, 1.000000000000000000 ) ) ;
#191 = APPROVAL_DATE_TIME ( #38, #149 ) ;
#192 = DIRECTION ( 'NONE',  ( 0.000000000000000000, 0.000000000000000000, 1.000000000000000000 ) ) ;
#193 = FACE_OUTER_BOUND ( 'NONE', #231, .T. ) ;
#194 = CALENDAR_DATE ( 2023, 13, 2 ) ;
#195 = DIRECTION ( 'NONE',  ( 1.000000000000000000, 0.000000000000000000, -0.000000000000000000 ) ) ;
#196 = CARTESIAN_POINT ( 'NONE',  ( 5.000000000000000000, 6.123233995736766282E-16, 315.0000000000000000 ) ) ;
#197 = CIRCLE ( 'NONE', #154, 8.000000000000000000 ) ;
#198 = CIRCLE ( 'NONE', #15, 8.000000000000000000 ) ;
#199 = PRODUCT_RELATED_PRODUCT_CATEGORY ( 'detail', '', ( #109 ) ) ;
#200 = APPROVAL_STATUS ( 'not_yet_approved' ) ;
#201 = ORIENTED_EDGE ( 'NONE', *, *, #163, .T. ) ;
#202 = LOCAL_TIME ( 11, 15, 21.00000000000000000, #114 ) ;
#203 = AXIS2_PLACEMENT_3D ( 'NONE', #243, #190, #86 ) ;
#204 = ORIENTED_EDGE ( 'NONE', *, *, #50, .T. ) ;
#205 = CARTESIAN_POINT ( 'NONE',  ( 0.000000000000000000, 0.000000000000000000, 5.000000000000000000 ) ) ;
#206 = LOCAL_TIME ( 11, 15, 21.00000000000000000, #14 ) ;
#207 = CARTESIAN_POINT ( 'NONE',  ( -8.000000000000000000, 0.000000000000000000, 0.000000000000000000 ) ) ;
#208 = DATE_AND_TIME ( #28, #98 ) ;
#209 = PLANE ( 'NONE',  #241 ) ;
#210 = CALENDAR_DATE ( 2023, 13, 2 ) ;
#211 = CARTESIAN_POINT ( 'NONE',  ( 0.000000000000000000, 0.000000000000000000, 315.0000000000000000 ) ) ;
#212 = PERSON_AND_ORGANIZATION ( #230, #35 ) ;
#213 = FACE_OUTER_BOUND ( 'NONE', #216, .T. ) ;
#214 = DESIGN_CONTEXT ( 'detailed design', #138, 'design' ) ;
#215 = ADVANCED_FACE ( 'NONE', ( #193 ), #65, .T. ) ;
#216 = EDGE_LOOP ( 'NONE', ( #141, #115, #182, #180 ) ) ;
#217 = VECTOR ( 'NONE', #80, 1000.000000000000000 ) ;
#218 = LINE ( 'NONE', #34, #100 ) ;
#219 = EDGE_LOOP ( 'NONE', ( #69, #70, #116, #181 ) ) ;
#220 = CC_DESIGN_PERSON_AND_ORGANIZATION_ASSIGNMENT ( #171, #150, ( #251 ) ) ;
#221 = DIRECTION ( 'NONE',  ( -0.000000000000000000, -0.000000000000000000, -1.000000000000000000 ) ) ;
#222 = CYLINDRICAL_SURFACE ( 'NONE', #13, 5.000000000000000000 ) ;
#223 = SECURITY_CLASSIFICATION_LEVEL ( 'unclassified' ) ;
#224 = DATE_TIME_ROLE ( 'creation_date' ) ;
#225 = LINE ( 'NONE', #40, #105 ) ;
#226 = FACE_BOUND ( 'NONE', #47, .T. ) ;
#227 = EDGE_CURVE ( 'NONE', #103, #162, #120, .T. ) ;
#228 = CC_DESIGN_DATE_AND_TIME_ASSIGNMENT ( #78, #224, ( #89 ) ) ;
#229 = ORIENTED_EDGE ( 'NONE', *, *, #135, .F. ) ;
#230 = PERSON ( 'NEURÈENÝ', 'NEURÈENÝ', 'NEURÈENÝ', ('NEURÈENÝ'), ('NEURÈENÝ'), ('NEURÈENÝ') ) ;
#231 = EDGE_LOOP ( 'NONE', ( #139, #46 ) ) ;
#232 = AXIS2_PLACEMENT_3D ( 'NONE', #52, #183, #1 ) ;
#233 = DIRECTION ( 'NONE',  ( 1.000000000000000000, 0.000000000000000000, 0.000000000000000000 ) ) ;
#234 = APPROVAL_PERSON_ORGANIZATION ( #173, #156, #129 ) ;
#235 = ADVANCED_FACE ( 'NONE', ( #87 ), #104, .F. ) ;
#236 = ORIENTED_EDGE ( 'NONE', *, *, #56, .F. ) ;
#237 = CARTESIAN_POINT ( 'NONE',  ( -8.000000000000000000, 0.000000000000000000, 5.000000000000000000 ) ) ;
#238 =( GEOMETRIC_REPRESENTATION_CONTEXT ( 3 ) GLOBAL_UNCERTAINTY_ASSIGNED_CONTEXT ( ( #157 ) ) GLOBAL_UNIT_ASSIGNED_CONTEXT ( ( #128, #161, #165 ) ) REPRESENTATION_CONTEXT ( 'NONE', 'WORKASPACE' ) );
#239 = DIRECTION ( 'NONE',  ( 0.000000000000000000, 0.000000000000000000, 1.000000000000000000 ) ) ;
#240 = DIRECTION ( 'NONE',  ( -0.000000000000000000, -0.000000000000000000, -1.000000000000000000 ) ) ;
#241 = AXIS2_PLACEMENT_3D ( 'NONE', #148, #41, #175 ) ;
#242 = COORDINATED_UNIVERSAL_TIME_OFFSET ( 1, 0, .AHEAD. ) ;
#243 = CARTESIAN_POINT ( 'NONE',  ( 0.000000000000000000, 0.000000000000000000, 315.0000000000000000 ) ) ;
#244 = APPROVAL_STATUS ( 'not_yet_approved' ) ;
#245 = CYLINDRICAL_SURFACE ( 'NONE', #6, 5.000000000000000000 ) ;
#246 = ADVANCED_FACE ( 'NONE', ( #88 ), #29, .T. ) ;
#247 = PERSON_AND_ORGANIZATION ( #230, #35 ) ;
#248 = VERTEX_POINT ( 'NONE', #178 ) ;
#249 = APPROVAL_DATE_TIME ( #18, #39 ) ;
#250 = ORIENTED_EDGE ( 'NONE', *, *, #79, .T. ) ;
#251 = PRODUCT_DEFINITION_FORMATION_WITH_SPECIFIED_SOURCE ( 'LIBOVOLNÝ', '', #109, .NOT_KNOWN. ) ;
#252 = ADVANCED_FACE ( 'NONE', ( #213 ), #222, .T. ) ;
#253 = VERTEX_POINT ( 'NONE', #151 ) ;
#254 = ORIENTED_EDGE ( 'NONE', *, *, #85, .F. ) ;
#255 = DIRECTION ( 'NONE',  ( -0.000000000000000000, -0.000000000000000000, -1.000000000000000000 ) ) ;
ENDSEC;
END-ISO-10303-21;
