ISO-10303-21;
HEADER;
FILE_DESCRIPTION (( 'STEP AP203' ),
    '1' );
FILE_NAME ('eaa5.STEP',
    '2023-02-13T09:15:56',
    ( '' ),
    ( '' ),
    'SwSTEP 2.0',
    'SolidWorks 2019',
    '' );
FILE_SCHEMA (( 'CONFIG_CONTROL_DESIGN' ));
ENDSEC;

DATA;
#1 = DIRECTION ( 'NONE',  ( 1.000000000000000000, 0.000000000000000000, -0.000000000000000000 ) ) ;
#2 = DATE_AND_TIME ( #123, #3 ) ;
#3 = LOCAL_TIME ( 10, 15, 56.00000000000000000, #140 ) ;
#4 = VERTEX_POINT ( 'NONE', #6 ) ;
#5 = ORIENTED_EDGE ( 'NONE', *, *, #215, .T. ) ;
#6 = CARTESIAN_POINT ( 'NONE',  ( 8.000000000000000000, 9.797174393178823685E-16, 100.0000000000000000 ) ) ;
#7 = CC_DESIGN_APPROVAL ( #248, ( #145 ) ) ;
#8 = APPROVAL_DATE_TIME ( #48, #52 ) ;
#9 = CC_DESIGN_APPROVAL ( #52, ( #208 ) ) ;
#10 = CARTESIAN_POINT ( 'NONE',  ( 11.00000000000000000, 1.347111479062088405E-15, 7.000000000000000000 ) ) ;
#11 = LOCAL_TIME ( 10, 15, 56.00000000000000000, #32 ) ;
#12 = EDGE_LOOP ( 'NONE', ( #247, #110 ) ) ;
#13 = AXIS2_PLACEMENT_3D ( 'NONE', #190, #59, #1 ) ;
#14 = LINE ( 'NONE', #187, #197 ) ;
#15 = CARTESIAN_POINT ( 'NONE',  ( -8.000000000000000000, 0.000000000000000000, 100.0000000000000000 ) ) ;
#16 = DATE_AND_TIME ( #116, #53 ) ;
#17 = FACE_OUTER_BOUND ( 'NONE', #12, .T. ) ;
#18 = DIRECTION ( 'NONE',  ( -1.000000000000000000, 0.000000000000000000, 0.000000000000000000 ) ) ;
#19 = DIRECTION ( 'NONE',  ( -1.000000000000000000, 0.000000000000000000, 0.000000000000000000 ) ) ;
#20 = APPROVAL_DATE_TIME ( #2, #75 ) ;
#21 = ADVANCED_FACE ( 'NONE', ( #40 ), #25, .T. ) ;
#22 = ORIENTED_EDGE ( 'NONE', *, *, #98, .F. ) ;
#23 = PERSON_AND_ORGANIZATION ( #183, #240 ) ;
#24 = APPROVAL_STATUS ( 'not_yet_approved' ) ;
#25 = CYLINDRICAL_SURFACE ( 'NONE', #246, 11.00000000000000000 ) ;
#26 = ORIENTED_EDGE ( 'NONE', *, *, #112, .T. ) ;
#27 = CARTESIAN_POINT ( 'NONE',  ( 11.00000000000000000, 1.347111479062088405E-15, 0.000000000000000000 ) ) ;
#28 = CARTESIAN_POINT ( 'NONE',  ( -11.00000000000000000, 0.000000000000000000, 7.000000000000000000 ) ) ;
#29 =( GEOMETRIC_REPRESENTATION_CONTEXT ( 3 ) GLOBAL_UNCERTAINTY_ASSIGNED_CONTEXT ( ( #101 ) ) GLOBAL_UNIT_ASSIGNED_CONTEXT ( ( #251, #134, #77 ) ) REPRESENTATION_CONTEXT ( 'NONE', 'WORKASPACE' ) );
#30 = CARTESIAN_POINT ( 'NONE',  ( 0.000000000000000000, 0.000000000000000000, 0.000000000000000000 ) ) ;
#31 = CC_DESIGN_PERSON_AND_ORGANIZATION_ASSIGNMENT ( #23, #252, ( #148 ) ) ;
#32 = COORDINATED_UNIVERSAL_TIME_OFFSET ( 1, 0, .AHEAD. ) ;
#33 = EDGE_CURVE ( 'NONE', #193, #167, #216, .T. ) ;
#34 = DATE_TIME_ROLE ( 'creation_date' ) ;
#35 = PERSON_AND_ORGANIZATION_ROLE ( 'creator' ) ;
#36 = ORIENTED_EDGE ( 'NONE', *, *, #233, .F. ) ;
#37 = APPLICATION_PROTOCOL_DEFINITION ( 'international standard', 'config_control_design', 1994, #130 ) ;
#38 = FACE_BOUND ( 'NONE', #78, .T. ) ;
#39 = LINE ( 'NONE', #67, #213 ) ;
#40 = FACE_OUTER_BOUND ( 'NONE', #242, .T. ) ;
#41 = ADVANCED_FACE ( 'NONE', ( #115 ), #195, .T. ) ;
#42 = PERSON_AND_ORGANIZATION ( #183, #240 ) ;
#43 = ORIENTED_EDGE ( 'NONE', *, *, #215, .F. ) ;
#44 = CC_DESIGN_SECURITY_CLASSIFICATION ( #208, ( #148 ) ) ;
#45 = DIRECTION ( 'NONE',  ( 1.000000000000000000, 0.000000000000000000, 0.000000000000000000 ) ) ;
#46 = DIRECTION ( 'NONE',  ( 0.000000000000000000, 0.000000000000000000, 1.000000000000000000 ) ) ;
#47 = APPROVAL_DATE_TIME ( #71, #248 ) ;
#48 = DATE_AND_TIME ( #127, #175 ) ;
#49 = DIRECTION ( 'NONE',  ( 0.000000000000000000, 0.000000000000000000, 1.000000000000000000 ) ) ;
#50 = AXIS2_PLACEMENT_3D ( 'NONE', #238, #56, #128 ) ;
#51 = CARTESIAN_POINT ( 'NONE',  ( 0.000000000000000000, 0.000000000000000000, 7.000000000000000000 ) ) ;
#52 = APPROVAL ( #24, 'NEURÈENÝ' ) ;
#53 = LOCAL_TIME ( 10, 15, 56.00000000000000000, #62 ) ;
#54 = DIRECTION ( 'NONE',  ( 0.000000000000000000, 0.000000000000000000, 1.000000000000000000 ) ) ;
#55 = CALENDAR_DATE ( 2023, 13, 2 ) ;
#56 = DIRECTION ( 'NONE',  ( -0.000000000000000000, -0.000000000000000000, -1.000000000000000000 ) ) ;
#57 = CIRCLE ( 'NONE', #225, 11.00000000000000000 ) ;
#58 = EDGE_LOOP ( 'NONE', ( #36, #5, #244, #60 ) ) ;
#59 = DIRECTION ( 'NONE',  ( 0.000000000000000000, 0.000000000000000000, 1.000000000000000000 ) ) ;
#60 = ORIENTED_EDGE ( 'NONE', *, *, #159, .F. ) ;
#61 = APPROVAL_PERSON_ORGANIZATION ( #235, #75, #174 ) ;
#62 = COORDINATED_UNIVERSAL_TIME_OFFSET ( 1, 0, .AHEAD. ) ;
#63 = APPROVAL_ROLE ( '' ) ;
#64 = DIRECTION ( 'NONE',  ( 1.000000000000000000, 0.000000000000000000, 0.000000000000000000 ) ) ;
#65 = ORIENTED_EDGE ( 'NONE', *, *, #233, .T. ) ;
#66 = SHAPE_DEFINITION_REPRESENTATION ( #104, #214 ) ;
#67 = CARTESIAN_POINT ( 'NONE',  ( -8.000000000000000000, 0.000000000000000000, 100.0000000000000000 ) ) ;
#68 = ORIENTED_EDGE ( 'NONE', *, *, #184, .F. ) ;
#69 = PLANE ( 'NONE',  #231 ) ;
#70 = AXIS2_PLACEMENT_3D ( 'NONE', #223, #218, #45 ) ;
#71 = DATE_AND_TIME ( #188, #236 ) ;
#72 = DIRECTION ( 'NONE',  ( 0.000000000000000000, 0.000000000000000000, 1.000000000000000000 ) ) ;
#73 = AXIS2_PLACEMENT_3D ( 'NONE', #144, #46, #121 ) ;
#74 = FACE_OUTER_BOUND ( 'NONE', #88, .T. ) ;
#75 = APPROVAL ( #249, 'NEURÈENÝ' ) ;
#76 = SECURITY_CLASSIFICATION_LEVEL ( 'unclassified' ) ;
#77 =( NAMED_UNIT ( * ) SI_UNIT ( $, .STERADIAN. ) SOLID_ANGLE_UNIT ( ) );
#78 = EDGE_LOOP ( 'NONE', ( #198, #222 ) ) ;
#79 = ADVANCED_FACE ( 'NONE', ( #173 ), #69, .T. ) ;
#80 = ORIENTED_EDGE ( 'NONE', *, *, #112, .F. ) ;
#81 = AXIS2_PLACEMENT_3D ( 'NONE', #204, #82, #169 ) ;
#82 = DIRECTION ( 'NONE',  ( 0.000000000000000000, 0.000000000000000000, 1.000000000000000000 ) ) ;
#83 = PERSON_AND_ORGANIZATION ( #183, #240 ) ;
#84 = CARTESIAN_POINT ( 'NONE',  ( -8.000000000000000000, 0.000000000000000000, 7.000000000000000000 ) ) ;
#85 = DIRECTION ( 'NONE',  ( 0.000000000000000000, 0.000000000000000000, 1.000000000000000000 ) ) ;
#86 = VERTEX_POINT ( 'NONE', #150 ) ;
#87 = CARTESIAN_POINT ( 'NONE',  ( 0.000000000000000000, 0.000000000000000000, 100.0000000000000000 ) ) ;
#88 = EDGE_LOOP ( 'NONE', ( #43, #80, #111, #96 ) ) ;
#89 = DIRECTION ( 'NONE',  ( -0.000000000000000000, -0.000000000000000000, -1.000000000000000000 ) ) ;
#90 = DIRECTION ( 'NONE',  ( 0.000000000000000000, 0.000000000000000000, 1.000000000000000000 ) ) ;
#91 = PRODUCT_RELATED_PRODUCT_CATEGORY ( 'detail', '', ( #182 ) ) ;
#92 = CARTESIAN_POINT ( 'NONE',  ( 0.000000000000000000, 0.000000000000000000, 100.0000000000000000 ) ) ;
#93 = CARTESIAN_POINT ( 'NONE',  ( 0.000000000000000000, 0.000000000000000000, 100.0000000000000000 ) ) ;
#94 = VECTOR ( 'NONE', #108, 1000.000000000000000 ) ;
#95 = CC_DESIGN_PERSON_AND_ORGANIZATION_ASSIGNMENT ( #83, #168, ( #148 ) ) ;
#96 = ORIENTED_EDGE ( 'NONE', *, *, #152, .T. ) ;
#97 = CLOSED_SHELL ( 'NONE', ( #41, #21, #217, #181, #176, #139, #79 ) ) ;
#98 = EDGE_CURVE ( 'NONE', #136, #205, #107, .T. ) ;
#99 = VECTOR ( 'NONE', #170, 1000.000000000000000 ) ;
#100 = CARTESIAN_POINT ( 'NONE',  ( 11.00000000000000000, 1.347111479062088405E-15, 7.000000000000000000 ) ) ;
#101 = UNCERTAINTY_MEASURE_WITH_UNIT (LENGTH_MEASURE( 1.000000000000000082E-05 ), #251, 'distance_accuracy_value', 'NONE');
#102 = AXIS2_PLACEMENT_3D ( 'NONE', #210, #72, #153 ) ;
#103 = CC_DESIGN_DATE_AND_TIME_ASSIGNMENT ( #16, #146, ( #208 ) ) ;
#104 = PRODUCT_DEFINITION_SHAPE ( 'NONE', 'NONE',  #145 ) ;
#105 = APPLICATION_CONTEXT ( 'configuration controlled 3d designs of mechanical parts and assemblies' ) ;
#106 = CIRCLE ( 'NONE', #157, 11.00000000000000000 ) ;
#107 = CIRCLE ( 'NONE', #135, 11.00000000000000000 ) ;
#108 = DIRECTION ( 'NONE',  ( -0.000000000000000000, -0.000000000000000000, -1.000000000000000000 ) ) ;
#109 = DIRECTION ( 'NONE',  ( -0.000000000000000000, -0.000000000000000000, -1.000000000000000000 ) ) ;
#110 = ORIENTED_EDGE ( 'NONE', *, *, #212, .F. ) ;
#111 = ORIENTED_EDGE ( 'NONE', *, *, #159, .T. ) ;
#112 = EDGE_CURVE ( 'NONE', #163, #4, #211, .T. ) ;
#113 = AXIS2_PLACEMENT_3D ( 'NONE', #234, #254, #162 ) ;
#114 = PLANE ( 'NONE',  #81 ) ;
#115 = FACE_OUTER_BOUND ( 'NONE', #58, .T. ) ;
#116 = CALENDAR_DATE ( 2023, 13, 2 ) ;
#117 = CC_DESIGN_APPROVAL ( #75, ( #148 ) ) ;
#118 = EDGE_CURVE ( 'NONE', #86, #177, #164, .T. ) ;
#119 = PERSON_AND_ORGANIZATION ( #183, #240 ) ;
#120 = EDGE_LOOP ( 'NONE', ( #26, #65 ) ) ;
#121 = DIRECTION ( 'NONE',  ( 1.000000000000000000, 0.000000000000000000, 0.000000000000000000 ) ) ;
#122 = DIRECTION ( 'NONE',  ( -0.000000000000000000, -0.000000000000000000, -1.000000000000000000 ) ) ;
#123 = CALENDAR_DATE ( 2023, 13, 2 ) ;
#124 = PERSON_AND_ORGANIZATION ( #183, #240 ) ;
#125 = EDGE_CURVE ( 'NONE', #205, #193, #185, .T. ) ;
#126 = LINE ( 'NONE', #100, #99 ) ;
#127 = CALENDAR_DATE ( 2023, 13, 2 ) ;
#128 = DIRECTION ( 'NONE',  ( -1.000000000000000000, 0.000000000000000000, 0.000000000000000000 ) ) ;
#129 = CIRCLE ( 'NONE', #70, 8.000000000000000000 ) ;
#130 = APPLICATION_CONTEXT ( 'configuration controlled 3d designs of mechanical parts and assemblies' ) ;
#131 = PERSON_AND_ORGANIZATION_ROLE ( 'classification_officer' ) ;
#132 = DATE_AND_TIME ( #55, #11 ) ;
#133 = CYLINDRICAL_SURFACE ( 'NONE', #50, 11.00000000000000000 ) ;
#134 =( NAMED_UNIT ( * ) PLANE_ANGLE_UNIT ( ) SI_UNIT ( $, .RADIAN. ) );
#135 = AXIS2_PLACEMENT_3D ( 'NONE', #51, #54, #151 ) ;
#136 = VERTEX_POINT ( 'NONE', #10 ) ;
#137 = CARTESIAN_POINT ( 'NONE',  ( -11.00000000000000000, 0.000000000000000000, 7.000000000000000000 ) ) ;
#138 = PERSON_AND_ORGANIZATION ( #183, #240 ) ;
#139 = ADVANCED_FACE ( 'NONE', ( #74 ), #156, .T. ) ;
#140 = COORDINATED_UNIVERSAL_TIME_OFFSET ( 1, 0, .AHEAD. ) ;
#141 = ORIENTED_EDGE ( 'NONE', *, *, #184, .T. ) ;
#142 = COORDINATED_UNIVERSAL_TIME_OFFSET ( 1, 0, .AHEAD. ) ;
#143 = CARTESIAN_POINT ( 'NONE',  ( -11.00000000000000000, 0.000000000000000000, 0.000000000000000000 ) ) ;
#144 = CARTESIAN_POINT ( 'NONE',  ( 0.000000000000000000, 0.000000000000000000, 0.000000000000000000 ) ) ;
#145 = PRODUCT_DEFINITION ( 'NEZNÁMÝ', '', #148, #209 ) ;
#146 = DATE_TIME_ROLE ( 'classification_date' ) ;
#147 = ORIENTED_EDGE ( 'NONE', *, *, #33, .T. ) ;
#148 = PRODUCT_DEFINITION_FORMATION_WITH_SPECIFIED_SOURCE ( 'LIBOVOLNÝ', '', #182, .NOT_KNOWN. ) ;
#149 = CARTESIAN_POINT ( 'NONE',  ( 0.000000000000000000, 0.000000000000000000, 7.000000000000000000 ) ) ;
#150 = CARTESIAN_POINT ( 'NONE',  ( 8.000000000000000000, 9.797174393178823685E-16, 7.000000000000000000 ) ) ;
#151 = DIRECTION ( 'NONE',  ( 1.000000000000000000, 0.000000000000000000, 0.000000000000000000 ) ) ;
#152 = EDGE_CURVE ( 'NONE', #177, #86, #129, .T. ) ;
#153 = DIRECTION ( 'NONE',  ( 1.000000000000000000, 0.000000000000000000, 0.000000000000000000 ) ) ;
#154 = APPROVAL_PERSON_ORGANIZATION ( #119, #52, #171 ) ;
#155 = CC_DESIGN_DATE_AND_TIME_ASSIGNMENT ( #132, #34, ( #145 ) ) ;
#156 = CYLINDRICAL_SURFACE ( 'NONE', #180, 8.000000000000000000 ) ;
#157 = AXIS2_PLACEMENT_3D ( 'NONE', #30, #90, #158 ) ;
#158 = DIRECTION ( 'NONE',  ( 1.000000000000000000, 0.000000000000000000, 0.000000000000000000 ) ) ;
#159 = EDGE_CURVE ( 'NONE', #163, #177, #39, .T. ) ;
#160 = FACE_OUTER_BOUND ( 'NONE', #219, .T. ) ;
#161 = PLANE ( 'NONE',  #13 ) ;
#162 = DIRECTION ( 'NONE',  ( 1.000000000000000000, 0.000000000000000000, 0.000000000000000000 ) ) ;
#163 = VERTEX_POINT ( 'NONE', #15 ) ;
#164 = CIRCLE ( 'NONE', #113, 8.000000000000000000 ) ;
#165 = APPROVAL_STATUS ( 'not_yet_approved' ) ;
#166 = CARTESIAN_POINT ( 'NONE',  ( 0.000000000000000000, 0.000000000000000000, 7.000000000000000000 ) ) ;
#167 = VERTEX_POINT ( 'NONE', #27 ) ;
#168 = PERSON_AND_ORGANIZATION_ROLE ( 'creator' ) ;
#169 = DIRECTION ( 'NONE',  ( 1.000000000000000000, 0.000000000000000000, -0.000000000000000000 ) ) ;
#170 = DIRECTION ( 'NONE',  ( -0.000000000000000000, -0.000000000000000000, -1.000000000000000000 ) ) ;
#171 = APPROVAL_ROLE ( '' ) ;
#172 = ORIENTED_EDGE ( 'NONE', *, *, #212, .T. ) ;
#173 = FACE_OUTER_BOUND ( 'NONE', #120, .T. ) ;
#174 = APPROVAL_ROLE ( '' ) ;
#175 = LOCAL_TIME ( 10, 15, 56.00000000000000000, #179 ) ;
#176 = ADVANCED_FACE ( 'NONE', ( #17 ), #161, .F. ) ;
#177 = VERTEX_POINT ( 'NONE', #84 ) ;
#178 = EDGE_LOOP ( 'NONE', ( #141, #255 ) ) ;
#179 = COORDINATED_UNIVERSAL_TIME_OFFSET ( 1, 0, .AHEAD. ) ;
#180 = AXIS2_PLACEMENT_3D ( 'NONE', #93, #239, #18 ) ;
#181 = ADVANCED_FACE ( 'NONE', ( #38, #192 ), #114, .T. ) ;
#182 = PRODUCT ( 'eaa5', 'eaa5', '', ( #226 ) ) ;
#183 = PERSON ( 'NEURÈENÝ', 'NEURÈENÝ', 'NEURÈENÝ', ('NEURÈENÝ'), ('NEURÈENÝ'), ('NEURÈENÝ') ) ;
#184 = EDGE_CURVE ( 'NONE', #205, #136, #57, .T. ) ;
#185 = LINE ( 'NONE', #137, #94 ) ;
#186 = APPROVAL_PERSON_ORGANIZATION ( #203, #248, #63 ) ;
#187 = CARTESIAN_POINT ( 'NONE',  ( 8.000000000000000000, 9.797174393178823685E-16, 100.0000000000000000 ) ) ;
#188 = CALENDAR_DATE ( 2023, 13, 2 ) ;
#189 = ORIENTED_EDGE ( 'NONE', *, *, #201, .T. ) ;
#190 = CARTESIAN_POINT ( 'NONE',  ( 0.000000000000000000, 0.000000000000000000, 0.000000000000000000 ) ) ;
#191 = APPLICATION_PROTOCOL_DEFINITION ( 'international standard', 'config_control_design', 1994, #105 ) ;
#192 = FACE_OUTER_BOUND ( 'NONE', #178, .T. ) ;
#193 = VERTEX_POINT ( 'NONE', #143 ) ;
#194 = CARTESIAN_POINT ( 'NONE',  ( 0.000000000000000000, 0.000000000000000000, 0.000000000000000000 ) ) ;
#195 = CYLINDRICAL_SURFACE ( 'NONE', #253, 8.000000000000000000 ) ;
#196 = PERSON_AND_ORGANIZATION_ROLE ( 'design_owner' ) ;
#197 = VECTOR ( 'NONE', #109, 1000.000000000000000 ) ;
#198 = ORIENTED_EDGE ( 'NONE', *, *, #152, .F. ) ;
#199 = DIRECTION ( 'NONE',  ( 1.000000000000000000, 0.000000000000000000, -0.000000000000000000 ) ) ;
#200 = AXIS2_PLACEMENT_3D ( 'NONE', #194, #85, #221 ) ;
#201 = EDGE_CURVE ( 'NONE', #136, #167, #126, .T. ) ;
#202 = CC_DESIGN_PERSON_AND_ORGANIZATION_ASSIGNMENT ( #138, #35, ( #145 ) ) ;
#203 = PERSON_AND_ORGANIZATION ( #183, #240 ) ;
#204 = CARTESIAN_POINT ( 'NONE',  ( 0.000000000000000000, 0.000000000000000000, 7.000000000000000000 ) ) ;
#205 = VERTEX_POINT ( 'NONE', #28 ) ;
#206 = CIRCLE ( 'NONE', #250, 8.000000000000000000 ) ;
#207 = CC_DESIGN_PERSON_AND_ORGANIZATION_ASSIGNMENT ( #124, #131, ( #208 ) ) ;
#208 = SECURITY_CLASSIFICATION ( '', '', #76 ) ;
#209 = DESIGN_CONTEXT ( 'detailed design', #130, 'design' ) ;
#210 = CARTESIAN_POINT ( 'NONE',  ( 0.000000000000000000, 0.000000000000000000, 100.0000000000000000 ) ) ;
#211 = CIRCLE ( 'NONE', #102, 8.000000000000000000 ) ;
#212 = EDGE_CURVE ( 'NONE', #167, #193, #106, .T. ) ;
#213 = VECTOR ( 'NONE', #122, 1000.000000000000000 ) ;
#214 = ADVANCED_BREP_SHAPE_REPRESENTATION ( 'eaa5', ( #232, #200 ), #29 ) ;
#215 = EDGE_CURVE ( 'NONE', #4, #86, #14, .T. ) ;
#216 = CIRCLE ( 'NONE', #73, 11.00000000000000000 ) ;
#217 = ADVANCED_FACE ( 'NONE', ( #160 ), #133, .T. ) ;
#218 = DIRECTION ( 'NONE',  ( 0.000000000000000000, 0.000000000000000000, 1.000000000000000000 ) ) ;
#219 = EDGE_LOOP ( 'NONE', ( #245, #68, #229, #147 ) ) ;
#220 = ORIENTED_EDGE ( 'NONE', *, *, #125, .F. ) ;
#221 = DIRECTION ( 'NONE',  ( 1.000000000000000000, 0.000000000000000000, 0.000000000000000000 ) ) ;
#222 = ORIENTED_EDGE ( 'NONE', *, *, #118, .F. ) ;
#223 = CARTESIAN_POINT ( 'NONE',  ( 0.000000000000000000, 0.000000000000000000, 7.000000000000000000 ) ) ;
#224 = DIRECTION ( 'NONE',  ( -1.000000000000000000, 0.000000000000000000, 0.000000000000000000 ) ) ;
#225 = AXIS2_PLACEMENT_3D ( 'NONE', #166, #243, #64 ) ;
#226 = MECHANICAL_CONTEXT ( 'NONE', #105, 'mechanical' ) ;
#227 = DIRECTION ( 'NONE',  ( -0.000000000000000000, -0.000000000000000000, -1.000000000000000000 ) ) ;
#228 = CARTESIAN_POINT ( 'NONE',  ( 0.000000000000000000, 0.000000000000000000, 100.0000000000000000 ) ) ;
#229 = ORIENTED_EDGE ( 'NONE', *, *, #125, .T. ) ;
#230 = CC_DESIGN_PERSON_AND_ORGANIZATION_ASSIGNMENT ( #42, #196, ( #182 ) ) ;
#231 = AXIS2_PLACEMENT_3D ( 'NONE', #228, #49, #199 ) ;
#232 = MANIFOLD_SOLID_BREP ( 'Pøidat vysunutím3', #97 ) ;
#233 = EDGE_CURVE ( 'NONE', #4, #163, #206, .T. ) ;
#234 = CARTESIAN_POINT ( 'NONE',  ( 0.000000000000000000, 0.000000000000000000, 7.000000000000000000 ) ) ;
#235 = PERSON_AND_ORGANIZATION ( #183, #240 ) ;
#236 = LOCAL_TIME ( 10, 15, 56.00000000000000000, #142 ) ;
#237 = DIRECTION ( 'NONE',  ( 0.000000000000000000, 0.000000000000000000, 1.000000000000000000 ) ) ;
#238 = CARTESIAN_POINT ( 'NONE',  ( 0.000000000000000000, 0.000000000000000000, 7.000000000000000000 ) ) ;
#239 = DIRECTION ( 'NONE',  ( -0.000000000000000000, -0.000000000000000000, -1.000000000000000000 ) ) ;
#240 = ORGANIZATION ( 'NEURÈENÝ', 'NEURÈENÝ', '' ) ;
#241 = DIRECTION ( 'NONE',  ( 1.000000000000000000, 0.000000000000000000, 0.000000000000000000 ) ) ;
#242 = EDGE_LOOP ( 'NONE', ( #22, #189, #172, #220 ) ) ;
#243 = DIRECTION ( 'NONE',  ( 0.000000000000000000, 0.000000000000000000, 1.000000000000000000 ) ) ;
#244 = ORIENTED_EDGE ( 'NONE', *, *, #118, .T. ) ;
#245 = ORIENTED_EDGE ( 'NONE', *, *, #201, .F. ) ;
#246 = AXIS2_PLACEMENT_3D ( 'NONE', #149, #89, #224 ) ;
#247 = ORIENTED_EDGE ( 'NONE', *, *, #33, .F. ) ;
#248 = APPROVAL ( #165, 'NEURÈENÝ' ) ;
#249 = APPROVAL_STATUS ( 'not_yet_approved' ) ;
#250 = AXIS2_PLACEMENT_3D ( 'NONE', #92, #237, #241 ) ;
#251 =( LENGTH_UNIT ( ) NAMED_UNIT ( * ) SI_UNIT ( .MILLI., .METRE. ) );
#252 = PERSON_AND_ORGANIZATION_ROLE ( 'design_supplier' ) ;
#253 = AXIS2_PLACEMENT_3D ( 'NONE', #87, #227, #19 ) ;
#254 = DIRECTION ( 'NONE',  ( 0.000000000000000000, 0.000000000000000000, 1.000000000000000000 ) ) ;
#255 = ORIENTED_EDGE ( 'NONE', *, *, #98, .T. ) ;
ENDSEC;
END-ISO-10303-21;
