ISO-10303-21;
HEADER;
FILE_DESCRIPTION (( 'STEP AP203' ),
    '1' );
FILE_NAME ('b1c3.STEP',
    '2023-02-13T07:49:13',
    ( '' ),
    ( '' ),
    'SwSTEP 2.0',
    'SolidWorks 2019',
    '' );
FILE_SCHEMA (( 'CONFIG_CONTROL_DESIGN' ));
ENDSEC;

DATA;
#1 = PLANE ( 'NONE',  #246 ) ;
#2 = CARTESIAN_POINT ( 'NONE',  ( -10.00000000000000000, 0.000000000000000000, 200.0000000000000000 ) ) ;
#3 = ADVANCED_FACE ( 'NONE', ( #129 ), #122, .T. ) ;
#4 = PRODUCT ( 'b1c3', 'b1c3', '', ( #170 ) ) ;
#5 = AXIS2_PLACEMENT_3D ( 'NONE', #60, #20, #98 ) ;
#6 = EDGE_LOOP ( 'NONE', ( #50, #243, #151, #71 ) ) ;
#7 = CIRCLE ( 'NONE', #154, 10.00000000000000000 ) ;
#8 = EDGE_CURVE ( 'NONE', #209, #182, #63, .T. ) ;
#9 = ORIENTED_EDGE ( 'NONE', *, *, #133, .T. ) ;
#10 = CIRCLE ( 'NONE', #103, 13.00000000000000178 ) ;
#11 = EDGE_LOOP ( 'NONE', ( #105, #147 ) ) ;
#12 = SHAPE_DEFINITION_REPRESENTATION ( #163, #183 ) ;
#13 = APPROVAL_ROLE ( '' ) ;
#14 = PERSON_AND_ORGANIZATION ( #181, #67 ) ;
#15 = CALENDAR_DATE ( 2023, 13, 2 ) ;
#16 = FACE_OUTER_BOUND ( 'NONE', #6, .T. ) ;
#17 =( NAMED_UNIT ( * ) SI_UNIT ( $, .STERADIAN. ) SOLID_ANGLE_UNIT ( ) );
#18 = DIRECTION ( 'NONE',  ( 1.000000000000000000, 0.000000000000000000, 0.000000000000000000 ) ) ;
#19 = COORDINATED_UNIVERSAL_TIME_OFFSET ( 1, 0, .AHEAD. ) ;
#20 = DIRECTION ( 'NONE',  ( 0.000000000000000000, 0.000000000000000000, 1.000000000000000000 ) ) ;
#21 = DIRECTION ( 'NONE',  ( -1.000000000000000000, 0.000000000000000000, 0.000000000000000000 ) ) ;
#22 = EDGE_CURVE ( 'NONE', #90, #126, #241, .T. ) ;
#23 = PRODUCT_DEFINITION_FORMATION_WITH_SPECIFIED_SOURCE ( 'LIBOVOLNÝ', '', #4, .NOT_KNOWN. ) ;
#24 = ADVANCED_FACE ( 'NONE', ( #219 ), #254, .T. ) ;
#25 = ORIENTED_EDGE ( 'NONE', *, *, #39, .T. ) ;
#26 = DATE_TIME_ROLE ( 'classification_date' ) ;
#27 = LOCAL_TIME ( 8, 49, 13.00000000000000000, #190 ) ;
#28 = APPLICATION_CONTEXT ( 'configuration controlled 3d designs of mechanical parts and assemblies' ) ;
#29 = VERTEX_POINT ( 'NONE', #52 ) ;
#30 = EDGE_CURVE ( 'NONE', #182, #209, #124, .T. ) ;
#31 = SECURITY_CLASSIFICATION_LEVEL ( 'unclassified' ) ;
#32 = ORIENTED_EDGE ( 'NONE', *, *, #239, .T. ) ;
#33 = CALENDAR_DATE ( 2023, 13, 2 ) ;
#34 = AXIS2_PLACEMENT_3D ( 'NONE', #141, #235, #40 ) ;
#35 = LINE ( 'NONE', #115, #225 ) ;
#36 = APPROVAL_DATE_TIME ( #112, #187 ) ;
#37 = CYLINDRICAL_SURFACE ( 'NONE', #91, 10.00000000000000000 ) ;
#38 = PLANE ( 'NONE',  #242 ) ;
#39 = EDGE_CURVE ( 'NONE', #29, #68, #205, .T. ) ;
#40 = DIRECTION ( 'NONE',  ( 1.000000000000000000, 0.000000000000000000, 0.000000000000000000 ) ) ;
#41 = CARTESIAN_POINT ( 'NONE',  ( 0.000000000000000000, 0.000000000000000000, 0.000000000000000000 ) ) ;
#42 = CARTESIAN_POINT ( 'NONE',  ( 0.000000000000000000, 0.000000000000000000, 8.000000000000000000 ) ) ;
#43 = DIRECTION ( 'NONE',  ( -0.000000000000000000, -0.000000000000000000, -1.000000000000000000 ) ) ;
#44 = VECTOR ( 'NONE', #79, 1000.000000000000000 ) ;
#45 = AXIS2_PLACEMENT_3D ( 'NONE', #59, #175, #101 ) ;
#46 = SECURITY_CLASSIFICATION ( '', '', #31 ) ;
#47 = EDGE_CURVE ( 'NONE', #227, #209, #82, .T. ) ;
#48 = ORIENTED_EDGE ( 'NONE', *, *, #30, .T. ) ;
#49 = FACE_BOUND ( 'NONE', #203, .T. ) ;
#50 = ORIENTED_EDGE ( 'NONE', *, *, #239, .F. ) ;
#51 = APPLICATION_PROTOCOL_DEFINITION ( 'international standard', 'config_control_design', 1994, #179 ) ;
#52 = CARTESIAN_POINT ( 'NONE',  ( 10.00000000000000000, 1.224646799147353256E-15, 8.000000000000000000 ) ) ;
#53 = DIRECTION ( 'NONE',  ( 1.000000000000000000, 0.000000000000000000, 0.000000000000000000 ) ) ;
#54 = CARTESIAN_POINT ( 'NONE',  ( 13.00000000000000178, 1.592040838891559293E-15, 0.000000000000000000 ) ) ;
#55 = LOCAL_TIME ( 8, 49, 13.00000000000000000, #218 ) ;
#56 = PERSON_AND_ORGANIZATION_ROLE ( 'design_owner' ) ;
#57 = DIRECTION ( 'NONE',  ( 0.000000000000000000, 0.000000000000000000, 1.000000000000000000 ) ) ;
#58 = APPROVAL_STATUS ( 'not_yet_approved' ) ;
#59 = CARTESIAN_POINT ( 'NONE',  ( 0.000000000000000000, 0.000000000000000000, 200.0000000000000000 ) ) ;
#60 = CARTESIAN_POINT ( 'NONE',  ( 0.000000000000000000, 0.000000000000000000, 8.000000000000000000 ) ) ;
#61 = EDGE_CURVE ( 'NONE', #68, #29, #7, .T. ) ;
#62 = CARTESIAN_POINT ( 'NONE',  ( -13.00000000000000178, 0.000000000000000000, 8.000000000000000000 ) ) ;
#63 = CIRCLE ( 'NONE', #34, 13.00000000000000178 ) ;
#64 = UNCERTAINTY_MEASURE_WITH_UNIT (LENGTH_MEASURE( 1.000000000000000082E-05 ), #155, 'distance_accuracy_value', 'NONE');
#65 = CC_DESIGN_APPROVAL ( #125, ( #23 ) ) ;
#66 = EDGE_CURVE ( 'NONE', #230, #227, #184, .T. ) ;
#67 = ORGANIZATION ( 'NEURÈENÝ', 'NEURÈENÝ', '' ) ;
#68 = VERTEX_POINT ( 'NONE', #77 ) ;
#69 = PERSON_AND_ORGANIZATION_ROLE ( 'classification_officer' ) ;
#70 = ADVANCED_FACE ( 'NONE', ( #16 ), #177, .T. ) ;
#71 = ORIENTED_EDGE ( 'NONE', *, *, #8, .T. ) ;
#72 = PERSON_AND_ORGANIZATION_ROLE ( 'design_supplier' ) ;
#73 = AXIS2_PLACEMENT_3D ( 'NONE', #196, #110, #53 ) ;
#74 = DATE_TIME_ROLE ( 'creation_date' ) ;
#75 = CALENDAR_DATE ( 2023, 13, 2 ) ;
#76 = DATE_AND_TIME ( #97, #164 ) ;
#77 = CARTESIAN_POINT ( 'NONE',  ( -10.00000000000000000, 0.000000000000000000, 8.000000000000000000 ) ) ;
#78 = LINE ( 'NONE', #252, #191 ) ;
#79 = DIRECTION ( 'NONE',  ( -0.000000000000000000, -0.000000000000000000, -1.000000000000000000 ) ) ;
#80 = CARTESIAN_POINT ( 'NONE',  ( 13.00000000000000178, 1.592040838891559293E-15, 8.000000000000000000 ) ) ;
#81 = CARTESIAN_POINT ( 'NONE',  ( 0.000000000000000000, 0.000000000000000000, 8.000000000000000000 ) ) ;
#82 = LINE ( 'NONE', #159, #167 ) ;
#83 = DIRECTION ( 'NONE',  ( 0.000000000000000000, 0.000000000000000000, 1.000000000000000000 ) ) ;
#84 = ADVANCED_FACE ( 'NONE', ( #197 ), #1, .F. ) ;
#85 = ORIENTED_EDGE ( 'NONE', *, *, #22, .T. ) ;
#86 = ORIENTED_EDGE ( 'NONE', *, *, #162, .F. ) ;
#87 = CALENDAR_DATE ( 2023, 13, 2 ) ;
#88 = ORIENTED_EDGE ( 'NONE', *, *, #213, .T. ) ;
#89 = EDGE_LOOP ( 'NONE', ( #204, #130 ) ) ;
#90 = VERTEX_POINT ( 'NONE', #153 ) ;
#91 = AXIS2_PLACEMENT_3D ( 'NONE', #221, #199, #178 ) ;
#92 = PERSON_AND_ORGANIZATION ( #181, #67 ) ;
#93 = DATE_AND_TIME ( #15, #27 ) ;
#94 = CARTESIAN_POINT ( 'NONE',  ( 0.000000000000000000, 0.000000000000000000, 8.000000000000000000 ) ) ;
#95 = FACE_OUTER_BOUND ( 'NONE', #11, .T. ) ;
#96 = DIRECTION ( 'NONE',  ( -0.000000000000000000, -0.000000000000000000, -1.000000000000000000 ) ) ;
#97 = CALENDAR_DATE ( 2023, 13, 2 ) ;
#98 = DIRECTION ( 'NONE',  ( 1.000000000000000000, 0.000000000000000000, 0.000000000000000000 ) ) ;
#99 = AXIS2_PLACEMENT_3D ( 'NONE', #251, #250, #232 ) ;
#100 = DIRECTION ( 'NONE',  ( 0.000000000000000000, 0.000000000000000000, 1.000000000000000000 ) ) ;
#101 = DIRECTION ( 'NONE',  ( 1.000000000000000000, 0.000000000000000000, -0.000000000000000000 ) ) ;
#102 = PRODUCT_DEFINITION ( 'NEZNÁMÝ', '', #23, #200 ) ;
#103 = AXIS2_PLACEMENT_3D ( 'NONE', #94, #83, #212 ) ;
#104 = ORIENTED_EDGE ( 'NONE', *, *, #61, .F. ) ;
#105 = ORIENTED_EDGE ( 'NONE', *, *, #128, .T. ) ;
#106 = COORDINATED_UNIVERSAL_TIME_OFFSET ( 1, 0, .AHEAD. ) ;
#107 = EDGE_LOOP ( 'NONE', ( #249, #9, #25, #127 ) ) ;
#108 = ORIENTED_EDGE ( 'NONE', *, *, #39, .F. ) ;
#109 = COORDINATED_UNIVERSAL_TIME_OFFSET ( 1, 0, .AHEAD. ) ;
#110 = DIRECTION ( 'NONE',  ( 0.000000000000000000, 0.000000000000000000, 1.000000000000000000 ) ) ;
#111 = EDGE_LOOP ( 'NONE', ( #186, #32, #48, #188 ) ) ;
#112 = DATE_AND_TIME ( #87, #226 ) ;
#113 = ADVANCED_FACE ( 'NONE', ( #192 ), #37, .T. ) ;
#114 = APPROVAL_ROLE ( '' ) ;
#115 = CARTESIAN_POINT ( 'NONE',  ( 10.00000000000000000, 1.224646799147353256E-15, 200.0000000000000000 ) ) ;
#116 = CARTESIAN_POINT ( 'NONE',  ( 0.000000000000000000, 0.000000000000000000, 8.000000000000000000 ) ) ;
#117 = PERSON_AND_ORGANIZATION ( #181, #67 ) ;
#118 = CARTESIAN_POINT ( 'NONE',  ( 0.000000000000000000, 0.000000000000000000, 200.0000000000000000 ) ) ;
#119 = CLOSED_SHELL ( 'NONE', ( #224, #24, #70, #228, #84, #113, #3 ) ) ;
#120 = DIRECTION ( 'NONE',  ( -1.000000000000000000, 0.000000000000000000, 0.000000000000000000 ) ) ;
#121 = APPROVAL_PERSON_ORGANIZATION ( #135, #125, #114 ) ;
#122 = PLANE ( 'NONE',  #45 ) ;
#123 = DIRECTION ( 'NONE',  ( -1.000000000000000000, 0.000000000000000000, 0.000000000000000000 ) ) ;
#124 = CIRCLE ( 'NONE', #189, 13.00000000000000178 ) ;
#125 = APPROVAL ( #211, 'NEURÈENÝ' ) ;
#126 = VERTEX_POINT ( 'NONE', #2 ) ;
#127 = ORIENTED_EDGE ( 'NONE', *, *, #213, .F. ) ;
#128 = EDGE_CURVE ( 'NONE', #227, #230, #10, .T. ) ;
#129 = FACE_OUTER_BOUND ( 'NONE', #206, .T. ) ;
#130 = ORIENTED_EDGE ( 'NONE', *, *, #30, .F. ) ;
#131 = CIRCLE ( 'NONE', #99, 10.00000000000000000 ) ;
#132 = ORIENTED_EDGE ( 'NONE', *, *, #61, .T. ) ;
#133 = EDGE_CURVE ( 'NONE', #90, #29, #35, .T. ) ;
#134 = APPROVAL_STATUS ( 'not_yet_approved' ) ;
#135 = PERSON_AND_ORGANIZATION ( #181, #67 ) ;
#136 = DIRECTION ( 'NONE',  ( 1.000000000000000000, 0.000000000000000000, 0.000000000000000000 ) ) ;
#137 = LINE ( 'NONE', #216, #44 ) ;
#138 = DIRECTION ( 'NONE',  ( 1.000000000000000000, 0.000000000000000000, 0.000000000000000000 ) ) ;
#139 = APPROVAL_DATE_TIME ( #76, #234 ) ;
#140 = PRODUCT_RELATED_PRODUCT_CATEGORY ( 'detail', '', ( #4 ) ) ;
#141 = CARTESIAN_POINT ( 'NONE',  ( 0.000000000000000000, 0.000000000000000000, 0.000000000000000000 ) ) ;
#142 = AXIS2_PLACEMENT_3D ( 'NONE', #81, #96, #120 ) ;
#143 = DIRECTION ( 'NONE',  ( 1.000000000000000000, 0.000000000000000000, -0.000000000000000000 ) ) ;
#144 = CARTESIAN_POINT ( 'NONE',  ( 0.000000000000000000, 0.000000000000000000, 200.0000000000000000 ) ) ;
#145 = MANIFOLD_SOLID_BREP ( 'Pøidat vysunutím3', #119 ) ;
#146 = PERSON_AND_ORGANIZATION ( #181, #67 ) ;
#147 = ORIENTED_EDGE ( 'NONE', *, *, #66, .T. ) ;
#148 = AXIS2_PLACEMENT_3D ( 'NONE', #195, #236, #136 ) ;
#149 = CC_DESIGN_PERSON_AND_ORGANIZATION_ASSIGNMENT ( #214, #56, ( #4 ) ) ;
#150 = DIRECTION ( 'NONE',  ( -0.000000000000000000, -0.000000000000000000, -1.000000000000000000 ) ) ;
#151 = ORIENTED_EDGE ( 'NONE', *, *, #47, .T. ) ;
#152 = APPROVAL_DATE_TIME ( #93, #125 ) ;
#153 = CARTESIAN_POINT ( 'NONE',  ( 10.00000000000000000, 1.224646799147353256E-15, 200.0000000000000000 ) ) ;
#154 = AXIS2_PLACEMENT_3D ( 'NONE', #116, #161, #138 ) ;
#155 =( LENGTH_UNIT ( ) NAMED_UNIT ( * ) SI_UNIT ( .MILLI., .METRE. ) );
#156 = DIRECTION ( 'NONE',  ( -0.000000000000000000, -0.000000000000000000, -1.000000000000000000 ) ) ;
#157 =( GEOMETRIC_REPRESENTATION_CONTEXT ( 3 ) GLOBAL_UNCERTAINTY_ASSIGNED_CONTEXT ( ( #64 ) ) GLOBAL_UNIT_ASSIGNED_CONTEXT ( ( #155, #172, #17 ) ) REPRESENTATION_CONTEXT ( 'NONE', 'WORKASPACE' ) );
#158 = APPLICATION_PROTOCOL_DEFINITION ( 'international standard', 'config_control_design', 1994, #28 ) ;
#159 = CARTESIAN_POINT ( 'NONE',  ( -13.00000000000000178, 0.000000000000000000, 8.000000000000000000 ) ) ;
#160 = DIRECTION ( 'NONE',  ( 0.000000000000000000, 0.000000000000000000, 1.000000000000000000 ) ) ;
#161 = DIRECTION ( 'NONE',  ( 0.000000000000000000, 0.000000000000000000, 1.000000000000000000 ) ) ;
#162 = EDGE_CURVE ( 'NONE', #126, #90, #131, .T. ) ;
#163 = PRODUCT_DEFINITION_SHAPE ( 'NONE', 'NONE',  #102 ) ;
#164 = LOCAL_TIME ( 8, 49, 13.00000000000000000, #19 ) ;
#165 = AXIS2_PLACEMENT_3D ( 'NONE', #42, #173, #21 ) ;
#166 = ORIENTED_EDGE ( 'NONE', *, *, #133, .F. ) ;
#167 = VECTOR ( 'NONE', #156, 1000.000000000000000 ) ;
#168 = PERSON_AND_ORGANIZATION ( #181, #67 ) ;
#169 = ORIENTED_EDGE ( 'NONE', *, *, #162, .T. ) ;
#170 = MECHANICAL_CONTEXT ( 'NONE', #179, 'mechanical' ) ;
#171 = DIRECTION ( 'NONE',  ( -0.000000000000000000, -0.000000000000000000, -1.000000000000000000 ) ) ;
#172 =( NAMED_UNIT ( * ) PLANE_ANGLE_UNIT ( ) SI_UNIT ( $, .RADIAN. ) );
#173 = DIRECTION ( 'NONE',  ( -0.000000000000000000, -0.000000000000000000, -1.000000000000000000 ) ) ;
#174 = PERSON_AND_ORGANIZATION_ROLE ( 'creator' ) ;
#175 = DIRECTION ( 'NONE',  ( 0.000000000000000000, 0.000000000000000000, 1.000000000000000000 ) ) ;
#176 = AXIS2_PLACEMENT_3D ( 'NONE', #144, #43, #123 ) ;
#177 = CYLINDRICAL_SURFACE ( 'NONE', #142, 13.00000000000000178 ) ;
#178 = DIRECTION ( 'NONE',  ( -1.000000000000000000, 0.000000000000000000, 0.000000000000000000 ) ) ;
#179 = APPLICATION_CONTEXT ( 'configuration controlled 3d designs of mechanical parts and assemblies' ) ;
#180 = CC_DESIGN_DATE_AND_TIME_ASSIGNMENT ( #245, #26, ( #46 ) ) ;
#181 = PERSON ( 'NEURÈENÝ', 'NEURÈENÝ', 'NEURÈENÝ', ('NEURÈENÝ'), ('NEURÈENÝ'), ('NEURÈENÝ') ) ;
#182 = VERTEX_POINT ( 'NONE', #54 ) ;
#183 = ADVANCED_BREP_SHAPE_REPRESENTATION ( 'b1c3', ( #145, #73 ), #157 ) ;
#184 = CIRCLE ( 'NONE', #5, 13.00000000000000178 ) ;
#185 = LOCAL_TIME ( 8, 49, 13.00000000000000000, #109 ) ;
#186 = ORIENTED_EDGE ( 'NONE', *, *, #66, .F. ) ;
#187 = APPROVAL ( #134, 'NEURÈENÝ' ) ;
#188 = ORIENTED_EDGE ( 'NONE', *, *, #47, .F. ) ;
#189 = AXIS2_PLACEMENT_3D ( 'NONE', #41, #100, #233 ) ;
#190 = COORDINATED_UNIVERSAL_TIME_OFFSET ( 1, 0, .AHEAD. ) ;
#191 = VECTOR ( 'NONE', #150, 1000.000000000000000 ) ;
#192 = FACE_OUTER_BOUND ( 'NONE', #202, .T. ) ;
#193 = CARTESIAN_POINT ( 'NONE',  ( -13.00000000000000178, 0.000000000000000000, 0.000000000000000000 ) ) ;
#194 = CARTESIAN_POINT ( 'NONE',  ( 0.000000000000000000, 0.000000000000000000, 8.000000000000000000 ) ) ;
#195 = CARTESIAN_POINT ( 'NONE',  ( 0.000000000000000000, 0.000000000000000000, 8.000000000000000000 ) ) ;
#196 = CARTESIAN_POINT ( 'NONE',  ( 0.000000000000000000, 0.000000000000000000, 0.000000000000000000 ) ) ;
#197 = FACE_OUTER_BOUND ( 'NONE', #89, .T. ) ;
#198 = CC_DESIGN_DATE_AND_TIME_ASSIGNMENT ( #248, #74, ( #102 ) ) ;
#199 = DIRECTION ( 'NONE',  ( -0.000000000000000000, -0.000000000000000000, -1.000000000000000000 ) ) ;
#200 = DESIGN_CONTEXT ( 'detailed design', #28, 'design' ) ;
#201 = CC_DESIGN_PERSON_AND_ORGANIZATION_ASSIGNMENT ( #207, #72, ( #23 ) ) ;
#202 = EDGE_LOOP ( 'NONE', ( #166, #86, #88, #132 ) ) ;
#203 = EDGE_LOOP ( 'NONE', ( #104, #108 ) ) ;
#204 = ORIENTED_EDGE ( 'NONE', *, *, #8, .F. ) ;
#205 = CIRCLE ( 'NONE', #148, 10.00000000000000000 ) ;
#206 = EDGE_LOOP ( 'NONE', ( #169, #85 ) ) ;
#207 = PERSON_AND_ORGANIZATION ( #181, #67 ) ;
#208 = DIRECTION ( 'NONE',  ( 0.000000000000000000, 0.000000000000000000, 1.000000000000000000 ) ) ;
#209 = VERTEX_POINT ( 'NONE', #193 ) ;
#210 = APPROVAL_ROLE ( '' ) ;
#211 = APPROVAL_STATUS ( 'not_yet_approved' ) ;
#212 = DIRECTION ( 'NONE',  ( 1.000000000000000000, 0.000000000000000000, 0.000000000000000000 ) ) ;
#213 = EDGE_CURVE ( 'NONE', #126, #68, #137, .T. ) ;
#214 = PERSON_AND_ORGANIZATION ( #181, #67 ) ;
#215 = CC_DESIGN_APPROVAL ( #187, ( #46 ) ) ;
#216 = CARTESIAN_POINT ( 'NONE',  ( -10.00000000000000000, 0.000000000000000000, 200.0000000000000000 ) ) ;
#217 = CARTESIAN_POINT ( 'NONE',  ( 0.000000000000000000, 0.000000000000000000, 0.000000000000000000 ) ) ;
#218 = COORDINATED_UNIVERSAL_TIME_OFFSET ( 1, 0, .AHEAD. ) ;
#219 = FACE_OUTER_BOUND ( 'NONE', #111, .T. ) ;
#220 = PERSON_AND_ORGANIZATION_ROLE ( 'creator' ) ;
#221 = CARTESIAN_POINT ( 'NONE',  ( 0.000000000000000000, 0.000000000000000000, 200.0000000000000000 ) ) ;
#222 = APPROVAL_PERSON_ORGANIZATION ( #117, #234, #13 ) ;
#223 = CYLINDRICAL_SURFACE ( 'NONE', #176, 10.00000000000000000 ) ;
#224 = ADVANCED_FACE ( 'NONE', ( #238 ), #223, .T. ) ;
#225 = VECTOR ( 'NONE', #171, 1000.000000000000000 ) ;
#226 = LOCAL_TIME ( 8, 49, 13.00000000000000000, #106 ) ;
#227 = VERTEX_POINT ( 'NONE', #62 ) ;
#228 = ADVANCED_FACE ( 'NONE', ( #49, #95 ), #38, .T. ) ;
#229 = CC_DESIGN_APPROVAL ( #234, ( #102 ) ) ;
#230 = VERTEX_POINT ( 'NONE', #80 ) ;
#231 = CC_DESIGN_PERSON_AND_ORGANIZATION_ASSIGNMENT ( #168, #174, ( #102 ) ) ;
#232 = DIRECTION ( 'NONE',  ( 1.000000000000000000, 0.000000000000000000, 0.000000000000000000 ) ) ;
#233 = DIRECTION ( 'NONE',  ( 1.000000000000000000, 0.000000000000000000, 0.000000000000000000 ) ) ;
#234 = APPROVAL ( #58, 'NEURÈENÝ' ) ;
#235 = DIRECTION ( 'NONE',  ( 0.000000000000000000, 0.000000000000000000, 1.000000000000000000 ) ) ;
#236 = DIRECTION ( 'NONE',  ( 0.000000000000000000, 0.000000000000000000, 1.000000000000000000 ) ) ;
#237 = AXIS2_PLACEMENT_3D ( 'NONE', #118, #57, #18 ) ;
#238 = FACE_OUTER_BOUND ( 'NONE', #107, .T. ) ;
#239 = EDGE_CURVE ( 'NONE', #230, #182, #78, .T. ) ;
#240 = CC_DESIGN_PERSON_AND_ORGANIZATION_ASSIGNMENT ( #92, #69, ( #46 ) ) ;
#241 = CIRCLE ( 'NONE', #237, 10.00000000000000000 ) ;
#242 = AXIS2_PLACEMENT_3D ( 'NONE', #194, #208, #255 ) ;
#243 = ORIENTED_EDGE ( 'NONE', *, *, #128, .F. ) ;
#244 = CC_DESIGN_PERSON_AND_ORGANIZATION_ASSIGNMENT ( #146, #220, ( #23 ) ) ;
#245 = DATE_AND_TIME ( #75, #185 ) ;
#246 = AXIS2_PLACEMENT_3D ( 'NONE', #217, #160, #143 ) ;
#247 = CC_DESIGN_SECURITY_CLASSIFICATION ( #46, ( #23 ) ) ;
#248 = DATE_AND_TIME ( #33, #55 ) ;
#249 = ORIENTED_EDGE ( 'NONE', *, *, #22, .F. ) ;
#250 = DIRECTION ( 'NONE',  ( 0.000000000000000000, 0.000000000000000000, 1.000000000000000000 ) ) ;
#251 = CARTESIAN_POINT ( 'NONE',  ( 0.000000000000000000, 0.000000000000000000, 200.0000000000000000 ) ) ;
#252 = CARTESIAN_POINT ( 'NONE',  ( 13.00000000000000178, 1.592040838891559293E-15, 8.000000000000000000 ) ) ;
#253 = APPROVAL_PERSON_ORGANIZATION ( #14, #187, #210 ) ;
#254 = CYLINDRICAL_SURFACE ( 'NONE', #165, 13.00000000000000178 ) ;
#255 = DIRECTION ( 'NONE',  ( 1.000000000000000000, 0.000000000000000000, -0.000000000000000000 ) ) ;
ENDSEC;
END-ISO-10303-21;
