ISO-10303-21;
HEADER;
FILE_DESCRIPTION (( 'STEP AP203' ),
    '1' );
FILE_NAME ('1f9f.STEP',
    '2023-02-13T09:17:44',
    ( '' ),
    ( '' ),
    'SwSTEP 2.0',
    'SolidWorks 2019',
    '' );
FILE_SCHEMA (( 'CONFIG_CONTROL_DESIGN' ));
ENDSEC;

DATA;
#1 = FACE_OUTER_BOUND ( 'NONE', #223, .T. ) ;
#2 = ORIENTED_EDGE ( 'NONE', *, *, #217, .F. ) ;
#3 = PLANE ( 'NONE',  #252 ) ;
#4 = DIRECTION ( 'NONE',  ( -0.000000000000000000, -0.000000000000000000, -1.000000000000000000 ) ) ;
#5 = PRODUCT_DEFINITION_FORMATION_WITH_SPECIFIED_SOURCE ( 'LIBOVOLNÝ', '', #9, .NOT_KNOWN. ) ;
#6 = APPLICATION_CONTEXT ( 'configuration controlled 3d designs of mechanical parts and assemblies' ) ;
#7 = PERSON_AND_ORGANIZATION_ROLE ( 'design_supplier' ) ;
#8 = ORIENTED_EDGE ( 'NONE', *, *, #192, .F. ) ;
#9 = PRODUCT ( '1f9f', '1f9f', '', ( #151 ) ) ;
#10 = ADVANCED_FACE ( 'NONE', ( #168 ), #26, .T. ) ;
#11 = APPROVAL_DATE_TIME ( #189, #167 ) ;
#12 = DIRECTION ( 'NONE',  ( 1.000000000000000000, 0.000000000000000000, 0.000000000000000000 ) ) ;
#13 = CYLINDRICAL_SURFACE ( 'NONE', #28, 9.000000000000000000 ) ;
#14 = EDGE_CURVE ( 'NONE', #32, #60, #78, .T. ) ;
#15 = PERSON ( 'NEURÈENÝ', 'NEURÈENÝ', 'NEURÈENÝ', ('NEURÈENÝ'), ('NEURÈENÝ'), ('NEURÈENÝ') ) ;
#16 = LINE ( 'NONE', #118, #41 ) ;
#17 = CARTESIAN_POINT ( 'NONE',  ( -9.000000000000000000, 0.000000000000000000, 7.000000000000000000 ) ) ;
#18 = ORIENTED_EDGE ( 'NONE', *, *, #144, .F. ) ;
#19 = DIRECTION ( 'NONE',  ( -0.000000000000000000, -0.000000000000000000, -1.000000000000000000 ) ) ;
#20 = LOCAL_TIME ( 10, 17, 44.00000000000000000, #187 ) ;
#21 = DIRECTION ( 'NONE',  ( -0.000000000000000000, -0.000000000000000000, -1.000000000000000000 ) ) ;
#22 = EDGE_LOOP ( 'NONE', ( #8, #124 ) ) ;
#23 = DATE_AND_TIME ( #186, #183 ) ;
#24 = CARTESIAN_POINT ( 'NONE',  ( 9.000000000000000000, 1.102182119232617714E-15, 7.000000000000000000 ) ) ;
#25 = DIRECTION ( 'NONE',  ( -0.000000000000000000, -0.000000000000000000, -1.000000000000000000 ) ) ;
#26 = CYLINDRICAL_SURFACE ( 'NONE', #153, 9.000000000000000000 ) ;
#27 = AXIS2_PLACEMENT_3D ( 'NONE', #115, #193, #221 ) ;
#28 = AXIS2_PLACEMENT_3D ( 'NONE', #173, #71, #157 ) ;
#29 = AXIS2_PLACEMENT_3D ( 'NONE', #176, #33, #140 ) ;
#30 = CARTESIAN_POINT ( 'NONE',  ( 0.000000000000000000, 0.000000000000000000, 7.000000000000000000 ) ) ;
#31 = CARTESIAN_POINT ( 'NONE',  ( 0.000000000000000000, 0.000000000000000000, 7.000000000000000000 ) ) ;
#32 = VERTEX_POINT ( 'NONE', #90 ) ;
#33 = DIRECTION ( 'NONE',  ( 0.000000000000000000, 0.000000000000000000, 1.000000000000000000 ) ) ;
#34 = DIRECTION ( 'NONE',  ( 1.000000000000000000, 0.000000000000000000, 0.000000000000000000 ) ) ;
#35 = AXIS2_PLACEMENT_3D ( 'NONE', #36, #56, #34 ) ;
#36 = CARTESIAN_POINT ( 'NONE',  ( 0.000000000000000000, 0.000000000000000000, 7.000000000000000000 ) ) ;
#37 = VERTEX_POINT ( 'NONE', #250 ) ;
#38 = VERTEX_POINT ( 'NONE', #64 ) ;
#39 = DIRECTION ( 'NONE',  ( -1.000000000000000000, 0.000000000000000000, 0.000000000000000000 ) ) ;
#40 = PERSON_AND_ORGANIZATION ( #15, #215 ) ;
#41 = VECTOR ( 'NONE', #19, 1000.000000000000000 ) ;
#42 = PERSON_AND_ORGANIZATION ( #15, #215 ) ;
#43 = ORIENTED_EDGE ( 'NONE', *, *, #91, .T. ) ;
#44 = CC_DESIGN_DATE_AND_TIME_ASSIGNMENT ( #232, #171, ( #170 ) ) ;
#45 = PERSON_AND_ORGANIZATION ( #15, #215 ) ;
#46 = PRODUCT_DEFINITION_SHAPE ( 'NONE', 'NONE',  #170 ) ;
#47 = SHAPE_DEFINITION_REPRESENTATION ( #46, #190 ) ;
#48 = CIRCLE ( 'NONE', #27, 6.000000000000000888 ) ;
#49 = UNCERTAINTY_MEASURE_WITH_UNIT (LENGTH_MEASURE( 1.000000000000000082E-05 ), #75, 'distance_accuracy_value', 'NONE');
#50 = DIRECTION ( 'NONE',  ( 0.000000000000000000, 0.000000000000000000, 1.000000000000000000 ) ) ;
#51 = DATE_TIME_ROLE ( 'classification_date' ) ;
#52 = EDGE_CURVE ( 'NONE', #198, #38, #62, .T. ) ;
#53 = EDGE_CURVE ( 'NONE', #32, #37, #233, .T. ) ;
#54 = CARTESIAN_POINT ( 'NONE',  ( 0.000000000000000000, 0.000000000000000000, 400.0000000000000000 ) ) ;
#55 = AXIS2_PLACEMENT_3D ( 'NONE', #54, #166, #138 ) ;
#56 = DIRECTION ( 'NONE',  ( 0.000000000000000000, 0.000000000000000000, 1.000000000000000000 ) ) ;
#57 = FACE_OUTER_BOUND ( 'NONE', #210, .T. ) ;
#58 = EDGE_CURVE ( 'NONE', #184, #198, #235, .T. ) ;
#59 = CIRCLE ( 'NONE', #199, 6.000000000000000888 ) ;
#60 = VERTEX_POINT ( 'NONE', #243 ) ;
#61 = EDGE_CURVE ( 'NONE', #143, #37, #230, .T. ) ;
#62 = LINE ( 'NONE', #206, #162 ) ;
#63 = PERSON_AND_ORGANIZATION_ROLE ( 'classification_officer' ) ;
#64 = CARTESIAN_POINT ( 'NONE',  ( 6.000000000000000888, 7.347880794884120722E-16, 7.000000000000000000 ) ) ;
#65 = AXIS2_PLACEMENT_3D ( 'NONE', #141, #134, #237 ) ;
#66 = ADVANCED_FACE ( 'NONE', ( #191 ), #13, .T. ) ;
#67 = CALENDAR_DATE ( 2023, 13, 2 ) ;
#68 = DATE_AND_TIME ( #93, #178 ) ;
#69 = DATE_AND_TIME ( #67, #149 ) ;
#70 = COORDINATED_UNIVERSAL_TIME_OFFSET ( 1, 0, .AHEAD. ) ;
#71 = DIRECTION ( 'NONE',  ( -0.000000000000000000, -0.000000000000000000, -1.000000000000000000 ) ) ;
#72 = APPROVAL ( #131, 'NEURÈENÝ' ) ;
#73 = CC_DESIGN_DATE_AND_TIME_ASSIGNMENT ( #69, #51, ( #211 ) ) ;
#74 = CARTESIAN_POINT ( 'NONE',  ( -6.000000000000000888, 0.000000000000000000, 7.000000000000000000 ) ) ;
#75 =( LENGTH_UNIT ( ) NAMED_UNIT ( * ) SI_UNIT ( .MILLI., .METRE. ) );
#76 = ADVANCED_FACE ( 'NONE', ( #239, #57 ), #3, .T. ) ;
#77 = ORIENTED_EDGE ( 'NONE', *, *, #192, .T. ) ;
#78 = CIRCLE ( 'NONE', #92, 9.000000000000000000 ) ;
#79 = CYLINDRICAL_SURFACE ( 'NONE', #55, 6.000000000000000888 ) ;
#80 = EDGE_LOOP ( 'NONE', ( #161, #148, #101, #18 ) ) ;
#81 = APPROVAL_STATUS ( 'not_yet_approved' ) ;
#82 = DIRECTION ( 'NONE',  ( 1.000000000000000000, 0.000000000000000000, 0.000000000000000000 ) ) ;
#83 = ORIENTED_EDGE ( 'NONE', *, *, #52, .T. ) ;
#84 = CC_DESIGN_PERSON_AND_ORGANIZATION_ASSIGNMENT ( #172, #132, ( #170 ) ) ;
#85 = ORIENTED_EDGE ( 'NONE', *, *, #144, .T. ) ;
#86 = ADVANCED_FACE ( 'NONE', ( #165 ), #196, .F. ) ;
#87 = ORIENTED_EDGE ( 'NONE', *, *, #52, .F. ) ;
#88 = APPROVAL_ROLE ( '' ) ;
#89 = CARTESIAN_POINT ( 'NONE',  ( 0.000000000000000000, 0.000000000000000000, 0.000000000000000000 ) ) ;
#90 = CARTESIAN_POINT ( 'NONE',  ( 9.000000000000000000, 1.102182119232617714E-15, 7.000000000000000000 ) ) ;
#91 = EDGE_CURVE ( 'NONE', #38, #195, #209, .T. ) ;
#92 = AXIS2_PLACEMENT_3D ( 'NONE', #109, #224, #12 ) ;
#93 = CALENDAR_DATE ( 2023, 13, 2 ) ;
#94 = CARTESIAN_POINT ( 'NONE',  ( -9.000000000000000000, 0.000000000000000000, 0.000000000000000000 ) ) ;
#95 = APPLICATION_CONTEXT ( 'configuration controlled 3d designs of mechanical parts and assemblies' ) ;
#96 = FACE_OUTER_BOUND ( 'NONE', #128, .T. ) ;
#97 = FACE_OUTER_BOUND ( 'NONE', #152, .T. ) ;
#98 =( NAMED_UNIT ( * ) SI_UNIT ( $, .STERADIAN. ) SOLID_ANGLE_UNIT ( ) );
#99 = ORIENTED_EDGE ( 'NONE', *, *, #217, .T. ) ;
#100 = DIRECTION ( 'NONE',  ( 1.000000000000000000, 0.000000000000000000, -0.000000000000000000 ) ) ;
#101 = ORIENTED_EDGE ( 'NONE', *, *, #113, .T. ) ;
#102 = APPROVAL_PERSON_ORGANIZATION ( #129, #72, #88 ) ;
#103 = DIRECTION ( 'NONE',  ( 1.000000000000000000, 0.000000000000000000, 0.000000000000000000 ) ) ;
#104 = ORIENTED_EDGE ( 'NONE', *, *, #113, .F. ) ;
#105 = COORDINATED_UNIVERSAL_TIME_OFFSET ( 1, 0, .AHEAD. ) ;
#106 = PERSON_AND_ORGANIZATION_ROLE ( 'design_owner' ) ;
#107 = CALENDAR_DATE ( 2023, 13, 2 ) ;
#108 = AXIS2_PLACEMENT_3D ( 'NONE', #119, #255, #100 ) ;
#109 = CARTESIAN_POINT ( 'NONE',  ( 0.000000000000000000, 0.000000000000000000, 7.000000000000000000 ) ) ;
#110 = DESIGN_CONTEXT ( 'detailed design', #6, 'design' ) ;
#111 = CALENDAR_DATE ( 2023, 13, 2 ) ;
#112 = DIRECTION ( 'NONE',  ( 0.000000000000000000, 0.000000000000000000, 1.000000000000000000 ) ) ;
#113 = EDGE_CURVE ( 'NONE', #37, #143, #181, .T. ) ;
#114 = LOCAL_TIME ( 10, 17, 44.00000000000000000, #70 ) ;
#115 = CARTESIAN_POINT ( 'NONE',  ( 0.000000000000000000, 0.000000000000000000, 7.000000000000000000 ) ) ;
#116 = ORIENTED_EDGE ( 'NONE', *, *, #58, .F. ) ;
#117 = CARTESIAN_POINT ( 'NONE',  ( -6.000000000000000888, 0.000000000000000000, 400.0000000000000000 ) ) ;
#118 = CARTESIAN_POINT ( 'NONE',  ( -6.000000000000000888, 0.000000000000000000, 400.0000000000000000 ) ) ;
#119 = CARTESIAN_POINT ( 'NONE',  ( 0.000000000000000000, 0.000000000000000000, 400.0000000000000000 ) ) ;
#120 = ORIENTED_EDGE ( 'NONE', *, *, #238, .T. ) ;
#121 = AXIS2_PLACEMENT_3D ( 'NONE', #122, #203, #103 ) ;
#122 = CARTESIAN_POINT ( 'NONE',  ( 0.000000000000000000, 0.000000000000000000, 0.000000000000000000 ) ) ;
#123 = CC_DESIGN_PERSON_AND_ORGANIZATION_ASSIGNMENT ( #45, #205, ( #5 ) ) ;
#124 = ORIENTED_EDGE ( 'NONE', *, *, #91, .F. ) ;
#125 = APPROVAL_STATUS ( 'not_yet_approved' ) ;
#126 = SECURITY_CLASSIFICATION_LEVEL ( 'unclassified' ) ;
#127 = APPLICATION_PROTOCOL_DEFINITION ( 'international standard', 'config_control_design', 1994, #6 ) ;
#128 = EDGE_LOOP ( 'NONE', ( #208, #83, #43, #2 ) ) ;
#129 = PERSON_AND_ORGANIZATION ( #15, #215 ) ;
#130 = CC_DESIGN_PERSON_AND_ORGANIZATION_ASSIGNMENT ( #244, #63, ( #211 ) ) ;
#131 = APPROVAL_STATUS ( 'not_yet_approved' ) ;
#132 = PERSON_AND_ORGANIZATION_ROLE ( 'creator' ) ;
#133 = EDGE_CURVE ( 'NONE', #60, #32, #135, .T. ) ;
#134 = DIRECTION ( 'NONE',  ( 0.000000000000000000, 0.000000000000000000, 1.000000000000000000 ) ) ;
#135 = CIRCLE ( 'NONE', #35, 9.000000000000000000 ) ;
#136 = DIRECTION ( 'NONE',  ( -1.000000000000000000, 0.000000000000000000, 0.000000000000000000 ) ) ;
#137 = CC_DESIGN_APPROVAL ( #159, ( #5 ) ) ;
#138 = DIRECTION ( 'NONE',  ( -1.000000000000000000, 0.000000000000000000, 0.000000000000000000 ) ) ;
#139 = ORIENTED_EDGE ( 'NONE', *, *, #58, .T. ) ;
#140 = DIRECTION ( 'NONE',  ( 1.000000000000000000, 0.000000000000000000, -0.000000000000000000 ) ) ;
#141 = CARTESIAN_POINT ( 'NONE',  ( 0.000000000000000000, 0.000000000000000000, 0.000000000000000000 ) ) ;
#142 = CC_DESIGN_SECURITY_CLASSIFICATION ( #211, ( #5 ) ) ;
#143 = VERTEX_POINT ( 'NONE', #94 ) ;
#144 = EDGE_CURVE ( 'NONE', #60, #143, #216, .T. ) ;
#145 = DIRECTION ( 'NONE',  ( 1.000000000000000000, 0.000000000000000000, 0.000000000000000000 ) ) ;
#146 = COORDINATED_UNIVERSAL_TIME_OFFSET ( 1, 0, .AHEAD. ) ;
#147 = VECTOR ( 'NONE', #4, 1000.000000000000000 ) ;
#148 = ORIENTED_EDGE ( 'NONE', *, *, #53, .T. ) ;
#149 = LOCAL_TIME ( 10, 17, 44.00000000000000000, #146 ) ;
#150 = ADVANCED_FACE ( 'NONE', ( #1 ), #200, .T. ) ;
#151 = MECHANICAL_CONTEXT ( 'NONE', #95, 'mechanical' ) ;
#152 = EDGE_LOOP ( 'NONE', ( #139, #120 ) ) ;
#153 = AXIS2_PLACEMENT_3D ( 'NONE', #228, #25, #39 ) ;
#154 = DIRECTION ( 'NONE',  ( -0.000000000000000000, -0.000000000000000000, -1.000000000000000000 ) ) ;
#155 = APPROVAL_DATE_TIME ( #68, #72 ) ;
#156 =( GEOMETRIC_REPRESENTATION_CONTEXT ( 3 ) GLOBAL_UNCERTAINTY_ASSIGNED_CONTEXT ( ( #49 ) ) GLOBAL_UNIT_ASSIGNED_CONTEXT ( ( #75, #163, #98 ) ) REPRESENTATION_CONTEXT ( 'NONE', 'WORKASPACE' ) );
#157 = DIRECTION ( 'NONE',  ( -1.000000000000000000, 0.000000000000000000, 0.000000000000000000 ) ) ;
#158 = MANIFOLD_SOLID_BREP ( 'Pøidat vysunutím3', #212 ) ;
#159 = APPROVAL ( #81, 'NEURÈENÝ' ) ;
#160 = PLANE ( 'NONE',  #108 ) ;
#161 = ORIENTED_EDGE ( 'NONE', *, *, #14, .F. ) ;
#162 = VECTOR ( 'NONE', #154, 1000.000000000000000 ) ;
#163 =( NAMED_UNIT ( * ) PLANE_ANGLE_UNIT ( ) SI_UNIT ( $, .RADIAN. ) );
#164 = AXIS2_PLACEMENT_3D ( 'NONE', #180, #21, #136 ) ;
#165 = FACE_OUTER_BOUND ( 'NONE', #201, .T. ) ;
#166 = DIRECTION ( 'NONE',  ( -0.000000000000000000, -0.000000000000000000, -1.000000000000000000 ) ) ;
#167 = APPROVAL ( #125, 'NEURÈENÝ' ) ;
#168 = FACE_OUTER_BOUND ( 'NONE', #241, .T. ) ;
#169 = AXIS2_PLACEMENT_3D ( 'NONE', #89, #185, #145 ) ;
#170 = PRODUCT_DEFINITION ( 'NEZNÁMÝ', '', #5, #110 ) ;
#171 = DATE_TIME_ROLE ( 'creation_date' ) ;
#172 = PERSON_AND_ORGANIZATION ( #15, #215 ) ;
#173 = CARTESIAN_POINT ( 'NONE',  ( 0.000000000000000000, 0.000000000000000000, 7.000000000000000000 ) ) ;
#174 = VECTOR ( 'NONE', #254, 1000.000000000000000 ) ;
#175 = APPROVAL_PERSON_ORGANIZATION ( #222, #167, #207 ) ;
#176 = CARTESIAN_POINT ( 'NONE',  ( 0.000000000000000000, 0.000000000000000000, 0.000000000000000000 ) ) ;
#177 = DIRECTION ( 'NONE',  ( 1.000000000000000000, 0.000000000000000000, 0.000000000000000000 ) ) ;
#178 = LOCAL_TIME ( 10, 17, 44.00000000000000000, #251 ) ;
#179 = ORIENTED_EDGE ( 'NONE', *, *, #53, .F. ) ;
#180 = CARTESIAN_POINT ( 'NONE',  ( 0.000000000000000000, 0.000000000000000000, 400.0000000000000000 ) ) ;
#181 = CIRCLE ( 'NONE', #65, 9.000000000000000000 ) ;
#182 = ORIENTED_EDGE ( 'NONE', *, *, #133, .T. ) ;
#183 = LOCAL_TIME ( 10, 17, 44.00000000000000000, #105 ) ;
#184 = VERTEX_POINT ( 'NONE', #117 ) ;
#185 = DIRECTION ( 'NONE',  ( 0.000000000000000000, 0.000000000000000000, 1.000000000000000000 ) ) ;
#186 = CALENDAR_DATE ( 2023, 13, 2 ) ;
#187 = COORDINATED_UNIVERSAL_TIME_OFFSET ( 1, 0, .AHEAD. ) ;
#188 = ORIENTED_EDGE ( 'NONE', *, *, #61, .F. ) ;
#189 = DATE_AND_TIME ( #107, #20 ) ;
#190 = ADVANCED_BREP_SHAPE_REPRESENTATION ( '1f9f', ( #158, #169 ), #156 ) ;
#191 = FACE_OUTER_BOUND ( 'NONE', #80, .T. ) ;
#192 = EDGE_CURVE ( 'NONE', #195, #38, #48, .T. ) ;
#193 = DIRECTION ( 'NONE',  ( 0.000000000000000000, 0.000000000000000000, 1.000000000000000000 ) ) ;
#194 = CARTESIAN_POINT ( 'NONE',  ( 6.000000000000000888, 7.347880794884120722E-16, 400.0000000000000000 ) ) ;
#195 = VERTEX_POINT ( 'NONE', #74 ) ;
#196 = PLANE ( 'NONE',  #29 ) ;
#197 = DIRECTION ( 'NONE',  ( 0.000000000000000000, 0.000000000000000000, 1.000000000000000000 ) ) ;
#198 = VERTEX_POINT ( 'NONE', #194 ) ;
#199 = AXIS2_PLACEMENT_3D ( 'NONE', #214, #197, #236 ) ;
#200 = CYLINDRICAL_SURFACE ( 'NONE', #164, 6.000000000000000888 ) ;
#201 = EDGE_LOOP ( 'NONE', ( #188, #104 ) ) ;
#202 = ORIENTED_EDGE ( 'NONE', *, *, #133, .F. ) ;
#203 = DIRECTION ( 'NONE',  ( 0.000000000000000000, 0.000000000000000000, 1.000000000000000000 ) ) ;
#204 = CC_DESIGN_APPROVAL ( #72, ( #211 ) ) ;
#205 = PERSON_AND_ORGANIZATION_ROLE ( 'creator' ) ;
#206 = CARTESIAN_POINT ( 'NONE',  ( 6.000000000000000888, 7.347880794884120722E-16, 400.0000000000000000 ) ) ;
#207 = APPROVAL_ROLE ( '' ) ;
#208 = ORIENTED_EDGE ( 'NONE', *, *, #238, .F. ) ;
#209 = CIRCLE ( 'NONE', #240, 6.000000000000000888 ) ;
#210 = EDGE_LOOP ( 'NONE', ( #182, #245 ) ) ;
#211 = SECURITY_CLASSIFICATION ( '', '', #126 ) ;
#212 = CLOSED_SHELL ( 'NONE', ( #234, #66, #10, #76, #86, #150, #231 ) ) ;
#213 = CC_DESIGN_PERSON_AND_ORGANIZATION_ASSIGNMENT ( #42, #106, ( #9 ) ) ;
#214 = CARTESIAN_POINT ( 'NONE',  ( 0.000000000000000000, 0.000000000000000000, 400.0000000000000000 ) ) ;
#215 = ORGANIZATION ( 'NEURÈENÝ', 'NEURÈENÝ', '' ) ;
#216 = LINE ( 'NONE', #17, #174 ) ;
#217 = EDGE_CURVE ( 'NONE', #184, #195, #16, .T. ) ;
#218 = ORIENTED_EDGE ( 'NONE', *, *, #61, .T. ) ;
#219 = DIRECTION ( 'NONE',  ( 0.000000000000000000, 0.000000000000000000, 1.000000000000000000 ) ) ;
#220 = AXIS2_PLACEMENT_3D ( 'NONE', #247, #50, #82 ) ;
#221 = DIRECTION ( 'NONE',  ( 1.000000000000000000, 0.000000000000000000, 0.000000000000000000 ) ) ;
#222 = PERSON_AND_ORGANIZATION ( #15, #215 ) ;
#223 = EDGE_LOOP ( 'NONE', ( #87, #116, #99, #77 ) ) ;
#224 = DIRECTION ( 'NONE',  ( 0.000000000000000000, 0.000000000000000000, 1.000000000000000000 ) ) ;
#225 = CC_DESIGN_APPROVAL ( #167, ( #170 ) ) ;
#226 = APPROVAL_ROLE ( '' ) ;
#227 = CC_DESIGN_PERSON_AND_ORGANIZATION_ASSIGNMENT ( #40, #7, ( #5 ) ) ;
#228 = CARTESIAN_POINT ( 'NONE',  ( 0.000000000000000000, 0.000000000000000000, 7.000000000000000000 ) ) ;
#229 = PERSON_AND_ORGANIZATION ( #15, #215 ) ;
#230 = CIRCLE ( 'NONE', #121, 9.000000000000000000 ) ;
#231 = ADVANCED_FACE ( 'NONE', ( #97 ), #160, .T. ) ;
#232 = DATE_AND_TIME ( #111, #114 ) ;
#233 = LINE ( 'NONE', #24, #147 ) ;
#234 = ADVANCED_FACE ( 'NONE', ( #96 ), #79, .T. ) ;
#235 = CIRCLE ( 'NONE', #220, 6.000000000000000888 ) ;
#236 = DIRECTION ( 'NONE',  ( 1.000000000000000000, 0.000000000000000000, 0.000000000000000000 ) ) ;
#237 = DIRECTION ( 'NONE',  ( 1.000000000000000000, 0.000000000000000000, 0.000000000000000000 ) ) ;
#238 = EDGE_CURVE ( 'NONE', #198, #184, #59, .T. ) ;
#239 = FACE_BOUND ( 'NONE', #22, .T. ) ;
#240 = AXIS2_PLACEMENT_3D ( 'NONE', #30, #219, #177 ) ;
#241 = EDGE_LOOP ( 'NONE', ( #179, #202, #85, #218 ) ) ;
#242 = DIRECTION ( 'NONE',  ( 1.000000000000000000, 0.000000000000000000, -0.000000000000000000 ) ) ;
#243 = CARTESIAN_POINT ( 'NONE',  ( -9.000000000000000000, 0.000000000000000000, 7.000000000000000000 ) ) ;
#244 = PERSON_AND_ORGANIZATION ( #15, #215 ) ;
#245 = ORIENTED_EDGE ( 'NONE', *, *, #14, .T. ) ;
#246 = APPLICATION_PROTOCOL_DEFINITION ( 'international standard', 'config_control_design', 1994, #95 ) ;
#247 = CARTESIAN_POINT ( 'NONE',  ( 0.000000000000000000, 0.000000000000000000, 400.0000000000000000 ) ) ;
#248 = PRODUCT_RELATED_PRODUCT_CATEGORY ( 'detail', '', ( #9 ) ) ;
#249 = APPROVAL_DATE_TIME ( #23, #159 ) ;
#250 = CARTESIAN_POINT ( 'NONE',  ( 9.000000000000000000, 1.102182119232617714E-15, 0.000000000000000000 ) ) ;
#251 = COORDINATED_UNIVERSAL_TIME_OFFSET ( 1, 0, .AHEAD. ) ;
#252 = AXIS2_PLACEMENT_3D ( 'NONE', #31, #112, #242 ) ;
#253 = APPROVAL_PERSON_ORGANIZATION ( #229, #159, #226 ) ;
#254 = DIRECTION ( 'NONE',  ( -0.000000000000000000, -0.000000000000000000, -1.000000000000000000 ) ) ;
#255 = DIRECTION ( 'NONE',  ( 0.000000000000000000, 0.000000000000000000, 1.000000000000000000 ) ) ;
ENDSEC;
END-ISO-10303-21;
