ISO-10303-21;
HEADER;
FILE_DESCRIPTION (( 'STEP AP203' ),
    '1' );
FILE_NAME ('8c1f.STEP',
    '2023-02-13T09:15:31',
    ( '' ),
    ( '' ),
    'SwSTEP 2.0',
    'SolidWorks 2019',
    '' );
FILE_SCHEMA (( 'CONFIG_CONTROL_DESIGN' ));
ENDSEC;

DATA;
#1 = EDGE_CURVE ( 'NONE', #75, #77, #158, .T. ) ;
#2 = AXIS2_PLACEMENT_3D ( 'NONE', #138, #82, #130 ) ;
#3 = ADVANCED_BREP_SHAPE_REPRESENTATION ( '8c1f', ( #248, #137 ), #112 ) ;
#4 = ORIENTED_EDGE ( 'NONE', *, *, #140, .F. ) ;
#5 = CARTESIAN_POINT ( 'NONE',  ( 0.000000000000000000, 0.000000000000000000, 7.000000000000000000 ) ) ;
#6 = ORIENTED_EDGE ( 'NONE', *, *, #115, .T. ) ;
#7 = PERSON_AND_ORGANIZATION ( #241, #19 ) ;
#8 = APPLICATION_CONTEXT ( 'configuration controlled 3d designs of mechanical parts and assemblies' ) ;
#9 = FACE_OUTER_BOUND ( 'NONE', #67, .T. ) ;
#10 = EDGE_CURVE ( 'NONE', #189, #41, #44, .T. ) ;
#11 = CALENDAR_DATE ( 2023, 13, 2 ) ;
#12 = CYLINDRICAL_SURFACE ( 'NONE', #237, 11.00000000000000000 ) ;
#13 =( NAMED_UNIT ( * ) PLANE_ANGLE_UNIT ( ) SI_UNIT ( $, .RADIAN. ) );
#14 = CC_DESIGN_PERSON_AND_ORGANIZATION_ASSIGNMENT ( #209, #169, ( #120 ) ) ;
#15 = LINE ( 'NONE', #92, #38 ) ;
#16 = PERSON_AND_ORGANIZATION_ROLE ( 'design_supplier' ) ;
#17 = CARTESIAN_POINT ( 'NONE',  ( 0.000000000000000000, 0.000000000000000000, 0.000000000000000000 ) ) ;
#18 = DIRECTION ( 'NONE',  ( -1.000000000000000000, 0.000000000000000000, 0.000000000000000000 ) ) ;
#19 = ORGANIZATION ( 'NEURÈENÝ', 'NEURÈENÝ', '' ) ;
#20 = CALENDAR_DATE ( 2023, 13, 2 ) ;
#21 = APPLICATION_PROTOCOL_DEFINITION ( 'international standard', 'config_control_design', 1994, #8 ) ;
#22 = VERTEX_POINT ( 'NONE', #47 ) ;
#23 = DIRECTION ( 'NONE',  ( 1.000000000000000000, 0.000000000000000000, 0.000000000000000000 ) ) ;
#24 = ADVANCED_FACE ( 'NONE', ( #9 ), #12, .T. ) ;
#25 = DIRECTION ( 'NONE',  ( 0.000000000000000000, 0.000000000000000000, 1.000000000000000000 ) ) ;
#26 = ORIENTED_EDGE ( 'NONE', *, *, #235, .T. ) ;
#27 = EDGE_LOOP ( 'NONE', ( #167, #103, #6, #105 ) ) ;
#28 = APPROVAL ( #73, 'NEURÈENÝ' ) ;
#29 = DIRECTION ( 'NONE',  ( 0.000000000000000000, 0.000000000000000000, 1.000000000000000000 ) ) ;
#30 = DIRECTION ( 'NONE',  ( -0.000000000000000000, -0.000000000000000000, -1.000000000000000000 ) ) ;
#31 = AXIS2_PLACEMENT_3D ( 'NONE', #146, #51, #127 ) ;
#32 = ORIENTED_EDGE ( 'NONE', *, *, #153, .F. ) ;
#33 = LOCAL_TIME ( 10, 15, 31.00000000000000000, #234 ) ;
#34 = ORIENTED_EDGE ( 'NONE', *, *, #69, .F. ) ;
#35 = PERSON_AND_ORGANIZATION ( #241, #19 ) ;
#36 = CALENDAR_DATE ( 2023, 13, 2 ) ;
#37 = AXIS2_PLACEMENT_3D ( 'NONE', #226, #100, #23 ) ;
#38 = VECTOR ( 'NONE', #72, 1000.000000000000000 ) ;
#39 = PERSON_AND_ORGANIZATION_ROLE ( 'classification_officer' ) ;
#40 = CC_DESIGN_SECURITY_CLASSIFICATION ( #231, ( #149 ) ) ;
#41 = VERTEX_POINT ( 'NONE', #83 ) ;
#42 = DIRECTION ( 'NONE',  ( 1.000000000000000000, 0.000000000000000000, -0.000000000000000000 ) ) ;
#43 = ADVANCED_FACE ( 'NONE', ( #85 ), #87, .F. ) ;
#44 = CIRCLE ( 'NONE', #176, 8.000000000000000000 ) ;
#45 = DIRECTION ( 'NONE',  ( 0.000000000000000000, 0.000000000000000000, 1.000000000000000000 ) ) ;
#46 = ORIENTED_EDGE ( 'NONE', *, *, #196, .T. ) ;
#47 = CARTESIAN_POINT ( 'NONE',  ( -8.000000000000000000, 0.000000000000000000, 160.0000000000000000 ) ) ;
#48 = CARTESIAN_POINT ( 'NONE',  ( 0.000000000000000000, 0.000000000000000000, 160.0000000000000000 ) ) ;
#49 = EDGE_CURVE ( 'NONE', #184, #22, #207, .T. ) ;
#50 = AXIS2_PLACEMENT_3D ( 'NONE', #213, #221, #18 ) ;
#51 = DIRECTION ( 'NONE',  ( 0.000000000000000000, 0.000000000000000000, 1.000000000000000000 ) ) ;
#52 = CARTESIAN_POINT ( 'NONE',  ( 0.000000000000000000, 0.000000000000000000, 7.000000000000000000 ) ) ;
#53 = CALENDAR_DATE ( 2023, 13, 2 ) ;
#54 = CC_DESIGN_PERSON_AND_ORGANIZATION_ASSIGNMENT ( #165, #113, ( #149 ) ) ;
#55 = CARTESIAN_POINT ( 'NONE',  ( -11.00000000000000000, 0.000000000000000000, 0.000000000000000000 ) ) ;
#56 = DATE_TIME_ROLE ( 'classification_date' ) ;
#57 = AXIS2_PLACEMENT_3D ( 'NONE', #206, #25, #185 ) ;
#58 = CARTESIAN_POINT ( 'NONE',  ( 0.000000000000000000, 0.000000000000000000, 0.000000000000000000 ) ) ;
#59 = EDGE_CURVE ( 'NONE', #97, #108, #212, .T. ) ;
#60 = ORIENTED_EDGE ( 'NONE', *, *, #161, .F. ) ;
#61 = ORIENTED_EDGE ( 'NONE', *, *, #59, .T. ) ;
#62 = ORIENTED_EDGE ( 'NONE', *, *, #1, .T. ) ;
#63 = DIRECTION ( 'NONE',  ( -0.000000000000000000, -0.000000000000000000, -1.000000000000000000 ) ) ;
#64 = LINE ( 'NONE', #70, #227 ) ;
#65 = ORIENTED_EDGE ( 'NONE', *, *, #49, .T. ) ;
#66 = AXIS2_PLACEMENT_3D ( 'NONE', #166, #29, #243 ) ;
#67 = EDGE_LOOP ( 'NONE', ( #205, #79, #210, #34 ) ) ;
#68 = COORDINATED_UNIVERSAL_TIME_OFFSET ( 1, 0, .AHEAD. ) ;
#69 = EDGE_CURVE ( 'NONE', #97, #75, #64, .T. ) ;
#70 = CARTESIAN_POINT ( 'NONE',  ( -11.00000000000000000, 0.000000000000000000, 7.000000000000000000 ) ) ;
#71 = PERSON_AND_ORGANIZATION_ROLE ( 'creator' ) ;
#72 = DIRECTION ( 'NONE',  ( -0.000000000000000000, -0.000000000000000000, -1.000000000000000000 ) ) ;
#73 = APPROVAL_STATUS ( 'not_yet_approved' ) ;
#74 = ADVANCED_FACE ( 'NONE', ( #144 ), #228, .T. ) ;
#75 = VERTEX_POINT ( 'NONE', #55 ) ;
#76 = COORDINATED_UNIVERSAL_TIME_OFFSET ( 1, 0, .AHEAD. ) ;
#77 = VERTEX_POINT ( 'NONE', #156 ) ;
#78 = CC_DESIGN_APPROVAL ( #131, ( #148 ) ) ;
#79 = ORIENTED_EDGE ( 'NONE', *, *, #140, .T. ) ;
#80 = DIRECTION ( 'NONE',  ( 1.000000000000000000, 0.000000000000000000, 0.000000000000000000 ) ) ;
#81 = APPROVAL ( #90, 'NEURÈENÝ' ) ;
#82 = DIRECTION ( 'NONE',  ( 0.000000000000000000, 0.000000000000000000, 1.000000000000000000 ) ) ;
#83 = CARTESIAN_POINT ( 'NONE',  ( 8.000000000000000000, 9.797174393178825657E-16, 7.000000000000000000 ) ) ;
#84 = APPROVAL_DATE_TIME ( #111, #81 ) ;
#85 = FACE_OUTER_BOUND ( 'NONE', #160, .T. ) ;
#86 =( LENGTH_UNIT ( ) NAMED_UNIT ( * ) SI_UNIT ( .MILLI., .METRE. ) );
#87 = PLANE ( 'NONE',  #183 ) ;
#88 = CC_DESIGN_DATE_AND_TIME_ASSIGNMENT ( #154, #56, ( #231 ) ) ;
#89 = DIRECTION ( 'NONE',  ( -1.000000000000000000, 0.000000000000000000, 0.000000000000000000 ) ) ;
#90 = APPROVAL_STATUS ( 'not_yet_approved' ) ;
#91 = DIRECTION ( 'NONE',  ( -1.000000000000000000, 0.000000000000000000, 0.000000000000000000 ) ) ;
#92 = CARTESIAN_POINT ( 'NONE',  ( -8.000000000000000000, 0.000000000000000000, 160.0000000000000000 ) ) ;
#93 = DIRECTION ( 'NONE',  ( -0.000000000000000000, -0.000000000000000000, -1.000000000000000000 ) ) ;
#94 = AXIS2_PLACEMENT_3D ( 'NONE', #236, #136, #42 ) ;
#95 = PERSON_AND_ORGANIZATION ( #241, #19 ) ;
#96 = PRODUCT_RELATED_PRODUCT_CATEGORY ( 'detail', '', ( #120 ) ) ;
#97 = VERTEX_POINT ( 'NONE', #133 ) ;
#98 = CARTESIAN_POINT ( 'NONE',  ( -8.000000000000000000, 0.000000000000000000, 7.000000000000000000 ) ) ;
#99 = ORIENTED_EDGE ( 'NONE', *, *, #1, .F. ) ;
#100 = DIRECTION ( 'NONE',  ( 0.000000000000000000, 0.000000000000000000, 1.000000000000000000 ) ) ;
#101 = CC_DESIGN_PERSON_AND_ORGANIZATION_ASSIGNMENT ( #233, #71, ( #148 ) ) ;
#102 = APPROVAL_PERSON_ORGANIZATION ( #7, #131, #229 ) ;
#103 = ORIENTED_EDGE ( 'NONE', *, *, #191, .F. ) ;
#104 = DIRECTION ( 'NONE',  ( 1.000000000000000000, 0.000000000000000000, 0.000000000000000000 ) ) ;
#105 = ORIENTED_EDGE ( 'NONE', *, *, #10, .T. ) ;
#106 = DIRECTION ( 'NONE',  ( -0.000000000000000000, -0.000000000000000000, -1.000000000000000000 ) ) ;
#107 = VECTOR ( 'NONE', #93, 1000.000000000000000 ) ;
#108 = VERTEX_POINT ( 'NONE', #180 ) ;
#109 = CARTESIAN_POINT ( 'NONE',  ( 8.000000000000000000, 9.797174393178825657E-16, 160.0000000000000000 ) ) ;
#110 = AXIS2_PLACEMENT_3D ( 'NONE', #58, #201, #104 ) ;
#111 = DATE_AND_TIME ( #36, #33 ) ;
#112 =( GEOMETRIC_REPRESENTATION_CONTEXT ( 3 ) GLOBAL_UNCERTAINTY_ASSIGNED_CONTEXT ( ( #168 ) ) GLOBAL_UNIT_ASSIGNED_CONTEXT ( ( #86, #13, #134 ) ) REPRESENTATION_CONTEXT ( 'NONE', 'WORKASPACE' ) );
#113 = PERSON_AND_ORGANIZATION_ROLE ( 'creator' ) ;
#114 = COORDINATED_UNIVERSAL_TIME_OFFSET ( 1, 0, .AHEAD. ) ;
#115 = EDGE_CURVE ( 'NONE', #22, #189, #15, .T. ) ;
#116 = FACE_OUTER_BOUND ( 'NONE', #132, .T. ) ;
#117 = DIRECTION ( 'NONE',  ( 0.000000000000000000, 0.000000000000000000, 1.000000000000000000 ) ) ;
#118 = ORIENTED_EDGE ( 'NONE', *, *, #115, .F. ) ;
#119 = APPROVAL_PERSON_ORGANIZATION ( #35, #81, #173 ) ;
#120 = PRODUCT ( '8c1f', '8c1f', '', ( #123 ) ) ;
#121 = DIRECTION ( 'NONE',  ( -0.000000000000000000, -0.000000000000000000, -1.000000000000000000 ) ) ;
#122 = CC_DESIGN_PERSON_AND_ORGANIZATION_ASSIGNMENT ( #95, #39, ( #231 ) ) ;
#123 = MECHANICAL_CONTEXT ( 'NONE', #8, 'mechanical' ) ;
#124 = EDGE_LOOP ( 'NONE', ( #164, #26, #217, #118 ) ) ;
#125 = CARTESIAN_POINT ( 'NONE',  ( 0.000000000000000000, 0.000000000000000000, 0.000000000000000000 ) ) ;
#126 = LINE ( 'NONE', #109, #107 ) ;
#127 = DIRECTION ( 'NONE',  ( 1.000000000000000000, 0.000000000000000000, 0.000000000000000000 ) ) ;
#128 = CC_DESIGN_DATE_AND_TIME_ASSIGNMENT ( #129, #218, ( #148 ) ) ;
#129 = DATE_AND_TIME ( #53, #246 ) ;
#130 = DIRECTION ( 'NONE',  ( 1.000000000000000000, 0.000000000000000000, 0.000000000000000000 ) ) ;
#131 = APPROVAL ( #145, 'NEURÈENÝ' ) ;
#132 = EDGE_LOOP ( 'NONE', ( #255, #65 ) ) ;
#133 = CARTESIAN_POINT ( 'NONE',  ( -11.00000000000000000, 0.000000000000000000, 7.000000000000000000 ) ) ;
#134 =( NAMED_UNIT ( * ) SI_UNIT ( $, .STERADIAN. ) SOLID_ANGLE_UNIT ( ) );
#135 = EDGE_LOOP ( 'NONE', ( #61, #46 ) ) ;
#136 = DIRECTION ( 'NONE',  ( 0.000000000000000000, 0.000000000000000000, 1.000000000000000000 ) ) ;
#137 = AXIS2_PLACEMENT_3D ( 'NONE', #17, #187, #80 ) ;
#138 = CARTESIAN_POINT ( 'NONE',  ( 0.000000000000000000, 0.000000000000000000, 7.000000000000000000 ) ) ;
#139 = PRODUCT_DEFINITION_SHAPE ( 'NONE', 'NONE',  #148 ) ;
#140 = EDGE_CURVE ( 'NONE', #108, #77, #175, .T. ) ;
#141 = FACE_BOUND ( 'NONE', #224, .T. ) ;
#142 = CIRCLE ( 'NONE', #2, 11.00000000000000000 ) ;
#143 = DIRECTION ( 'NONE',  ( 1.000000000000000000, 0.000000000000000000, -0.000000000000000000 ) ) ;
#144 = FACE_OUTER_BOUND ( 'NONE', #27, .T. ) ;
#145 = APPROVAL_STATUS ( 'not_yet_approved' ) ;
#146 = CARTESIAN_POINT ( 'NONE',  ( 0.000000000000000000, 0.000000000000000000, 0.000000000000000000 ) ) ;
#147 = AXIS2_PLACEMENT_3D ( 'NONE', #172, #232, #247 ) ;
#148 = PRODUCT_DEFINITION ( 'NEZNÁMÝ', '', #149, #193 ) ;
#149 = PRODUCT_DEFINITION_FORMATION_WITH_SPECIFIED_SOURCE ( 'LIBOVOLNÝ', '', #120, .NOT_KNOWN. ) ;
#150 = DIRECTION ( 'NONE',  ( 1.000000000000000000, 0.000000000000000000, -0.000000000000000000 ) ) ;
#151 = APPROVAL_DATE_TIME ( #245, #131 ) ;
#152 = COORDINATED_UNIVERSAL_TIME_OFFSET ( 1, 0, .AHEAD. ) ;
#153 = EDGE_CURVE ( 'NONE', #77, #75, #195, .T. ) ;
#154 = DATE_AND_TIME ( #174, #254 ) ;
#155 = APPROVAL_PERSON_ORGANIZATION ( #197, #28, #251 ) ;
#156 = CARTESIAN_POINT ( 'NONE',  ( 11.00000000000000000, 1.347111479062088405E-15, 0.000000000000000000 ) ) ;
#157 = SHAPE_DEFINITION_REPRESENTATION ( #139, #3 ) ;
#158 = CIRCLE ( 'NONE', #31, 11.00000000000000000 ) ;
#159 = PLANE ( 'NONE',  #94 ) ;
#160 = EDGE_LOOP ( 'NONE', ( #99, #32 ) ) ;
#161 = EDGE_CURVE ( 'NONE', #41, #189, #253, .T. ) ;
#162 = ORIENTED_EDGE ( 'NONE', *, *, #10, .F. ) ;
#163 = CARTESIAN_POINT ( 'NONE',  ( 0.000000000000000000, 0.000000000000000000, 7.000000000000000000 ) ) ;
#164 = ORIENTED_EDGE ( 'NONE', *, *, #49, .F. ) ;
#165 = PERSON_AND_ORGANIZATION ( #241, #19 ) ;
#166 = CARTESIAN_POINT ( 'NONE',  ( 0.000000000000000000, 0.000000000000000000, 7.000000000000000000 ) ) ;
#167 = ORIENTED_EDGE ( 'NONE', *, *, #235, .F. ) ;
#168 = UNCERTAINTY_MEASURE_WITH_UNIT (LENGTH_MEASURE( 1.000000000000000082E-05 ), #86, 'distance_accuracy_value', 'NONE');
#169 = PERSON_AND_ORGANIZATION_ROLE ( 'design_owner' ) ;
#170 = FACE_OUTER_BOUND ( 'NONE', #124, .T. ) ;
#171 = CC_DESIGN_APPROVAL ( #81, ( #149 ) ) ;
#172 = CARTESIAN_POINT ( 'NONE',  ( 0.000000000000000000, 0.000000000000000000, 160.0000000000000000 ) ) ;
#173 = APPROVAL_ROLE ( '' ) ;
#174 = CALENDAR_DATE ( 2023, 13, 2 ) ;
#175 = LINE ( 'NONE', #202, #198 ) ;
#176 = AXIS2_PLACEMENT_3D ( 'NONE', #214, #190, #194 ) ;
#177 = CC_DESIGN_APPROVAL ( #28, ( #231 ) ) ;
#178 = APPROVAL_DATE_TIME ( #252, #28 ) ;
#179 = LOCAL_TIME ( 10, 15, 31.00000000000000000, #76 ) ;
#180 = CARTESIAN_POINT ( 'NONE',  ( 11.00000000000000000, 1.347111479062088405E-15, 7.000000000000000000 ) ) ;
#181 = PERSON_AND_ORGANIZATION ( #241, #19 ) ;
#182 = ADVANCED_FACE ( 'NONE', ( #116 ), #159, .T. ) ;
#183 = AXIS2_PLACEMENT_3D ( 'NONE', #125, #45, #150 ) ;
#184 = VERTEX_POINT ( 'NONE', #188 ) ;
#185 = DIRECTION ( 'NONE',  ( 1.000000000000000000, 0.000000000000000000, 0.000000000000000000 ) ) ;
#186 = ADVANCED_FACE ( 'NONE', ( #141, #240 ), #242, .T. ) ;
#187 = DIRECTION ( 'NONE',  ( 0.000000000000000000, 0.000000000000000000, 1.000000000000000000 ) ) ;
#188 = CARTESIAN_POINT ( 'NONE',  ( 8.000000000000000000, 9.797174393178825657E-16, 160.0000000000000000 ) ) ;
#189 = VERTEX_POINT ( 'NONE', #98 ) ;
#190 = DIRECTION ( 'NONE',  ( 0.000000000000000000, 0.000000000000000000, 1.000000000000000000 ) ) ;
#191 = EDGE_CURVE ( 'NONE', #22, #184, #239, .T. ) ;
#192 = ORIENTED_EDGE ( 'NONE', *, *, #69, .T. ) ;
#193 = DESIGN_CONTEXT ( 'detailed design', #250, 'design' ) ;
#194 = DIRECTION ( 'NONE',  ( 1.000000000000000000, 0.000000000000000000, 0.000000000000000000 ) ) ;
#195 = CIRCLE ( 'NONE', #110, 11.00000000000000000 ) ;
#196 = EDGE_CURVE ( 'NONE', #108, #97, #142, .T. ) ;
#197 = PERSON_AND_ORGANIZATION ( #241, #19 ) ;
#198 = VECTOR ( 'NONE', #220, 1000.000000000000000 ) ;
#199 = ADVANCED_FACE ( 'NONE', ( #219 ), #211, .T. ) ;
#200 = LOCAL_TIME ( 10, 15, 31.00000000000000000, #68 ) ;
#201 = DIRECTION ( 'NONE',  ( 0.000000000000000000, 0.000000000000000000, 1.000000000000000000 ) ) ;
#202 = CARTESIAN_POINT ( 'NONE',  ( 11.00000000000000000, 1.347111479062088405E-15, 7.000000000000000000 ) ) ;
#203 = EDGE_LOOP ( 'NONE', ( #4, #238, #192, #62 ) ) ;
#204 = AXIS2_PLACEMENT_3D ( 'NONE', #48, #106, #91 ) ;
#205 = ORIENTED_EDGE ( 'NONE', *, *, #196, .F. ) ;
#206 = CARTESIAN_POINT ( 'NONE',  ( 0.000000000000000000, 0.000000000000000000, 160.0000000000000000 ) ) ;
#207 = CIRCLE ( 'NONE', #147, 8.000000000000000000 ) ;
#208 = ADVANCED_FACE ( 'NONE', ( #170 ), #230, .T. ) ;
#209 = PERSON_AND_ORGANIZATION ( #241, #19 ) ;
#210 = ORIENTED_EDGE ( 'NONE', *, *, #153, .T. ) ;
#211 = CYLINDRICAL_SURFACE ( 'NONE', #223, 11.00000000000000000 ) ;
#212 = CIRCLE ( 'NONE', #66, 11.00000000000000000 ) ;
#213 = CARTESIAN_POINT ( 'NONE',  ( 0.000000000000000000, 0.000000000000000000, 160.0000000000000000 ) ) ;
#214 = CARTESIAN_POINT ( 'NONE',  ( 0.000000000000000000, 0.000000000000000000, 7.000000000000000000 ) ) ;
#215 = DIRECTION ( 'NONE',  ( -1.000000000000000000, 0.000000000000000000, 0.000000000000000000 ) ) ;
#216 = CC_DESIGN_PERSON_AND_ORGANIZATION_ASSIGNMENT ( #181, #16, ( #149 ) ) ;
#217 = ORIENTED_EDGE ( 'NONE', *, *, #161, .T. ) ;
#218 = DATE_TIME_ROLE ( 'creation_date' ) ;
#219 = FACE_OUTER_BOUND ( 'NONE', #203, .T. ) ;
#220 = DIRECTION ( 'NONE',  ( -0.000000000000000000, -0.000000000000000000, -1.000000000000000000 ) ) ;
#221 = DIRECTION ( 'NONE',  ( -0.000000000000000000, -0.000000000000000000, -1.000000000000000000 ) ) ;
#222 = SECURITY_CLASSIFICATION_LEVEL ( 'unclassified' ) ;
#223 = AXIS2_PLACEMENT_3D ( 'NONE', #52, #30, #215 ) ;
#224 = EDGE_LOOP ( 'NONE', ( #162, #60 ) ) ;
#225 = AXIS2_PLACEMENT_3D ( 'NONE', #163, #117, #143 ) ;
#226 = CARTESIAN_POINT ( 'NONE',  ( 0.000000000000000000, 0.000000000000000000, 7.000000000000000000 ) ) ;
#227 = VECTOR ( 'NONE', #121, 1000.000000000000000 ) ;
#228 = CYLINDRICAL_SURFACE ( 'NONE', #50, 8.000000000000000000 ) ;
#229 = APPROVAL_ROLE ( '' ) ;
#230 = CYLINDRICAL_SURFACE ( 'NONE', #204, 8.000000000000000000 ) ;
#231 = SECURITY_CLASSIFICATION ( '', '', #222 ) ;
#232 = DIRECTION ( 'NONE',  ( 0.000000000000000000, 0.000000000000000000, 1.000000000000000000 ) ) ;
#233 = PERSON_AND_ORGANIZATION ( #241, #19 ) ;
#234 = COORDINATED_UNIVERSAL_TIME_OFFSET ( 1, 0, .AHEAD. ) ;
#235 = EDGE_CURVE ( 'NONE', #184, #41, #126, .T. ) ;
#236 = CARTESIAN_POINT ( 'NONE',  ( 0.000000000000000000, 0.000000000000000000, 160.0000000000000000 ) ) ;
#237 = AXIS2_PLACEMENT_3D ( 'NONE', #5, #63, #89 ) ;
#238 = ORIENTED_EDGE ( 'NONE', *, *, #59, .F. ) ;
#239 = CIRCLE ( 'NONE', #57, 8.000000000000000000 ) ;
#240 = FACE_OUTER_BOUND ( 'NONE', #135, .T. ) ;
#241 = PERSON ( 'NEURÈENÝ', 'NEURÈENÝ', 'NEURÈENÝ', ('NEURÈENÝ'), ('NEURÈENÝ'), ('NEURÈENÝ') ) ;
#242 = PLANE ( 'NONE',  #225 ) ;
#243 = DIRECTION ( 'NONE',  ( 1.000000000000000000, 0.000000000000000000, 0.000000000000000000 ) ) ;
#244 = APPLICATION_PROTOCOL_DEFINITION ( 'international standard', 'config_control_design', 1994, #250 ) ;
#245 = DATE_AND_TIME ( #11, #200 ) ;
#246 = LOCAL_TIME ( 10, 15, 31.00000000000000000, #152 ) ;
#247 = DIRECTION ( 'NONE',  ( 1.000000000000000000, 0.000000000000000000, 0.000000000000000000 ) ) ;
#248 = MANIFOLD_SOLID_BREP ( 'Pøidat vysunutím3', #249 ) ;
#249 = CLOSED_SHELL ( 'NONE', ( #208, #24, #199, #186, #43, #74, #182 ) ) ;
#250 = APPLICATION_CONTEXT ( 'configuration controlled 3d designs of mechanical parts and assemblies' ) ;
#251 = APPROVAL_ROLE ( '' ) ;
#252 = DATE_AND_TIME ( #20, #179 ) ;
#253 = CIRCLE ( 'NONE', #37, 8.000000000000000000 ) ;
#254 = LOCAL_TIME ( 10, 15, 31.00000000000000000, #114 ) ;
#255 = ORIENTED_EDGE ( 'NONE', *, *, #191, .T. ) ;
ENDSEC;
END-ISO-10303-21;
