ISO-10303-21;
HEADER;
FILE_DESCRIPTION (( 'STEP AP203' ),
    '1' );
FILE_NAME ('8811.STEP',
    '2023-02-13T10:14:53',
    ( '' ),
    ( '' ),
    'SwSTEP 2.0',
    'SolidWorks 2019',
    '' );
FILE_SCHEMA (( 'CONFIG_CONTROL_DESIGN' ));
ENDSEC;

DATA;
#1 = EDGE_CURVE ( 'NONE', #73, #75, #172, .T. ) ;
#2 = PERSON_AND_ORGANIZATION_ROLE ( 'creator' ) ;
#3 = ORIENTED_EDGE ( 'NONE', *, *, #9, .T. ) ;
#4 = AXIS2_PLACEMENT_3D ( 'NONE', #216, #55, #135 ) ;
#5 = FACE_OUTER_BOUND ( 'NONE', #81, .T. ) ;
#6 = DIRECTION ( 'NONE',  ( 0.000000000000000000, 0.000000000000000000, 1.000000000000000000 ) ) ;
#7 = PERSON_AND_ORGANIZATION ( #54, #148 ) ;
#8 = FACE_BOUND ( 'NONE', #226, .T. ) ;
#9 = EDGE_CURVE ( 'NONE', #21, #173, #209, .T. ) ;
#10 = CC_DESIGN_APPROVAL ( #41, ( #77 ) ) ;
#11 = DIRECTION ( 'NONE',  ( 1.000000000000000000, 0.000000000000000000, -0.000000000000000000 ) ) ;
#12 = DIRECTION ( 'NONE',  ( 0.000000000000000000, 0.000000000000000000, 1.000000000000000000 ) ) ;
#13 = EDGE_CURVE ( 'NONE', #152, #100, #14, .T. ) ;
#14 = CIRCLE ( 'NONE', #97, 9.000000000000000000 ) ;
#15 = DIRECTION ( 'NONE',  ( -0.000000000000000000, -0.000000000000000000, -1.000000000000000000 ) ) ;
#16 = VERTEX_POINT ( 'NONE', #52 ) ;
#17 = CARTESIAN_POINT ( 'NONE',  ( -9.000000000000000000, 0.000000000000000000, 0.000000000000000000 ) ) ;
#18 = AXIS2_PLACEMENT_3D ( 'NONE', #69, #38, #251 ) ;
#19 = FACE_OUTER_BOUND ( 'NONE', #191, .T. ) ;
#20 = EDGE_LOOP ( 'NONE', ( #253, #236, #99, #153 ) ) ;
#21 = VERTEX_POINT ( 'NONE', #50 ) ;
#22 = ORIENTED_EDGE ( 'NONE', *, *, #102, .T. ) ;
#23 = CIRCLE ( 'NONE', #117, 9.000000000000000000 ) ;
#24 = PERSON_AND_ORGANIZATION_ROLE ( 'classification_officer' ) ;
#25 = CYLINDRICAL_SURFACE ( 'NONE', #67, 6.000000000000000888 ) ;
#26 = APPROVAL_PERSON_ORGANIZATION ( #194, #109, #29 ) ;
#27 = CARTESIAN_POINT ( 'NONE',  ( 0.000000000000000000, 0.000000000000000000, 7.000000000000000000 ) ) ;
#28 = DIRECTION ( 'NONE',  ( -0.000000000000000000, -0.000000000000000000, -1.000000000000000000 ) ) ;
#29 = APPROVAL_ROLE ( '' ) ;
#30 = DIRECTION ( 'NONE',  ( 1.000000000000000000, 0.000000000000000000, 0.000000000000000000 ) ) ;
#31 = AXIS2_PLACEMENT_3D ( 'NONE', #238, #6, #46 ) ;
#32 = CC_DESIGN_PERSON_AND_ORGANIZATION_ASSIGNMENT ( #234, #199, ( #144 ) ) ;
#33 = DATE_AND_TIME ( #139, #220 ) ;
#34 = DIRECTION ( 'NONE',  ( 0.000000000000000000, 0.000000000000000000, 1.000000000000000000 ) ) ;
#35 = LINE ( 'NONE', #110, #155 ) ;
#36 = APPROVAL_STATUS ( 'not_yet_approved' ) ;
#37 = LOCAL_TIME ( 11, 14, 53.00000000000000000, #246 ) ;
#38 = DIRECTION ( 'NONE',  ( 0.000000000000000000, 0.000000000000000000, 1.000000000000000000 ) ) ;
#39 = DIRECTION ( 'NONE',  ( -0.000000000000000000, -0.000000000000000000, -1.000000000000000000 ) ) ;
#40 = ORIENTED_EDGE ( 'NONE', *, *, #13, .T. ) ;
#41 = APPROVAL ( #36, 'NEURÈENÝ' ) ;
#42 =( LENGTH_UNIT ( ) NAMED_UNIT ( * ) SI_UNIT ( .MILLI., .METRE. ) );
#43 = DATE_AND_TIME ( #120, #162 ) ;
#44 = ORIENTED_EDGE ( 'NONE', *, *, #78, .T. ) ;
#45 = DATE_AND_TIME ( #141, #150 ) ;
#46 = DIRECTION ( 'NONE',  ( 1.000000000000000000, 0.000000000000000000, 0.000000000000000000 ) ) ;
#47 = CYLINDRICAL_SURFACE ( 'NONE', #189, 9.000000000000000000 ) ;
#48 = MECHANICAL_CONTEXT ( 'NONE', #228, 'mechanical' ) ;
#49 = CC_DESIGN_PERSON_AND_ORGANIZATION_ASSIGNMENT ( #143, #2, ( #217 ) ) ;
#50 = CARTESIAN_POINT ( 'NONE',  ( 9.000000000000000000, 1.102182119232617714E-15, 0.000000000000000000 ) ) ;
#51 =( GEOMETRIC_REPRESENTATION_CONTEXT ( 3 ) GLOBAL_UNCERTAINTY_ASSIGNED_CONTEXT ( ( #179 ) ) GLOBAL_UNIT_ASSIGNED_CONTEXT ( ( #42, #118, #101 ) ) REPRESENTATION_CONTEXT ( 'NONE', 'WORKASPACE' ) );
#52 = CARTESIAN_POINT ( 'NONE',  ( -6.000000000000000888, 0.000000000000000000, 100.0000000000000000 ) ) ;
#53 = PLANE ( 'NONE',  #18 ) ;
#54 = PERSON ( 'NEURÈENÝ', 'NEURÈENÝ', 'NEURÈENÝ', ('NEURÈENÝ'), ('NEURÈENÝ'), ('NEURÈENÝ') ) ;
#55 = DIRECTION ( 'NONE',  ( 0.000000000000000000, 0.000000000000000000, 1.000000000000000000 ) ) ;
#56 = ADVANCED_FACE ( 'NONE', ( #200 ), #164, .T. ) ;
#57 = ORIENTED_EDGE ( 'NONE', *, *, #13, .F. ) ;
#58 = AXIS2_PLACEMENT_3D ( 'NONE', #248, #154, #138 ) ;
#59 = CIRCLE ( 'NONE', #214, 6.000000000000000888 ) ;
#60 = COORDINATED_UNIVERSAL_TIME_OFFSET ( 1, 0, .AHEAD. ) ;
#61 = CALENDAR_DATE ( 2023, 13, 2 ) ;
#62 = EDGE_CURVE ( 'NONE', #173, #21, #23, .T. ) ;
#63 = FACE_OUTER_BOUND ( 'NONE', #20, .T. ) ;
#64 = VECTOR ( 'NONE', #15, 1000.000000000000000 ) ;
#65 = SECURITY_CLASSIFICATION_LEVEL ( 'unclassified' ) ;
#66 = COORDINATED_UNIVERSAL_TIME_OFFSET ( 1, 0, .AHEAD. ) ;
#67 = AXIS2_PLACEMENT_3D ( 'NONE', #90, #28, #107 ) ;
#68 = CARTESIAN_POINT ( 'NONE',  ( 9.000000000000000000, 1.102182119232617714E-15, 7.000000000000000000 ) ) ;
#69 = CARTESIAN_POINT ( 'NONE',  ( 0.000000000000000000, 0.000000000000000000, 0.000000000000000000 ) ) ;
#70 = ADVANCED_FACE ( 'NONE', ( #63 ), #25, .T. ) ;
#71 = EDGE_LOOP ( 'NONE', ( #121, #192 ) ) ;
#72 = DIRECTION ( 'NONE',  ( -0.000000000000000000, -0.000000000000000000, -1.000000000000000000 ) ) ;
#73 = VERTEX_POINT ( 'NONE', #163 ) ;
#74 = ADVANCED_FACE ( 'NONE', ( #5 ), #47, .T. ) ;
#75 = VERTEX_POINT ( 'NONE', #237 ) ;
#76 = ORIENTED_EDGE ( 'NONE', *, *, #146, .F. ) ;
#77 = SECURITY_CLASSIFICATION ( '', '', #65 ) ;
#78 = EDGE_CURVE ( 'NONE', #250, #16, #59, .T. ) ;
#79 = APPROVAL_DATE_TIME ( #45, #109 ) ;
#80 = AXIS2_PLACEMENT_3D ( 'NONE', #202, #184, #11 ) ;
#81 = EDGE_LOOP ( 'NONE', ( #76, #175, #170, #158 ) ) ;
#82 = CC_DESIGN_DATE_AND_TIME_ASSIGNMENT ( #33, #204, ( #77 ) ) ;
#83 = PERSON_AND_ORGANIZATION_ROLE ( 'design_owner' ) ;
#84 = DESIGN_CONTEXT ( 'detailed design', #255, 'design' ) ;
#85 = APPROVAL_STATUS ( 'not_yet_approved' ) ;
#86 = DIRECTION ( 'NONE',  ( -1.000000000000000000, 0.000000000000000000, 0.000000000000000000 ) ) ;
#87 = APPROVAL_STATUS ( 'not_yet_approved' ) ;
#88 = CARTESIAN_POINT ( 'NONE',  ( 0.000000000000000000, 0.000000000000000000, 7.000000000000000000 ) ) ;
#89 = CALENDAR_DATE ( 2023, 13, 2 ) ;
#90 = CARTESIAN_POINT ( 'NONE',  ( 0.000000000000000000, 0.000000000000000000, 100.0000000000000000 ) ) ;
#91 = DATE_AND_TIME ( #89, #37 ) ;
#92 = CARTESIAN_POINT ( 'NONE',  ( 0.000000000000000000, 0.000000000000000000, 100.0000000000000000 ) ) ;
#93 = AXIS2_PLACEMENT_3D ( 'NONE', #92, #244, #98 ) ;
#94 = FACE_OUTER_BOUND ( 'NONE', #137, .T. ) ;
#95 = ADVANCED_FACE ( 'NONE', ( #8, #198 ), #127, .T. ) ;
#96 = ORIENTED_EDGE ( 'NONE', *, *, #126, .F. ) ;
#97 = AXIS2_PLACEMENT_3D ( 'NONE', #211, #12, #30 ) ;
#98 = DIRECTION ( 'NONE',  ( 1.000000000000000000, 0.000000000000000000, 0.000000000000000000 ) ) ;
#99 = ORIENTED_EDGE ( 'NONE', *, *, #1, .T. ) ;
#100 = VERTEX_POINT ( 'NONE', #188 ) ;
#101 =( NAMED_UNIT ( * ) SI_UNIT ( $, .STERADIAN. ) SOLID_ANGLE_UNIT ( ) );
#102 = EDGE_CURVE ( 'NONE', #16, #75, #222, .T. ) ;
#103 = EDGE_CURVE ( 'NONE', #16, #250, #225, .T. ) ;
#104 = CC_DESIGN_APPROVAL ( #223, ( #217 ) ) ;
#105 = DIRECTION ( 'NONE',  ( 1.000000000000000000, 0.000000000000000000, 0.000000000000000000 ) ) ;
#106 = DATE_TIME_ROLE ( 'creation_date' ) ;
#107 = DIRECTION ( 'NONE',  ( -1.000000000000000000, 0.000000000000000000, 0.000000000000000000 ) ) ;
#108 = PERSON_AND_ORGANIZATION ( #54, #148 ) ;
#109 = APPROVAL ( #85, 'NEURÈENÝ' ) ;
#110 = CARTESIAN_POINT ( 'NONE',  ( 6.000000000000000888, 7.347880794884119736E-16, 100.0000000000000000 ) ) ;
#111 = CIRCLE ( 'NONE', #183, 9.000000000000000000 ) ;
#112 = APPROVAL_DATE_TIME ( #91, #41 ) ;
#113 = DIRECTION ( 'NONE',  ( -1.000000000000000000, 0.000000000000000000, 0.000000000000000000 ) ) ;
#114 = ORIENTED_EDGE ( 'NONE', *, *, #146, .T. ) ;
#115 = ORIENTED_EDGE ( 'NONE', *, *, #195, .T. ) ;
#116 = CC_DESIGN_PERSON_AND_ORGANIZATION_ASSIGNMENT ( #122, #83, ( #224 ) ) ;
#117 = AXIS2_PLACEMENT_3D ( 'NONE', #124, #241, #105 ) ;
#118 =( NAMED_UNIT ( * ) PLANE_ANGLE_UNIT ( ) SI_UNIT ( $, .RADIAN. ) );
#119 = APPLICATION_PROTOCOL_DEFINITION ( 'international standard', 'config_control_design', 1994, #228 ) ;
#120 = CALENDAR_DATE ( 2023, 13, 2 ) ;
#121 = ORIENTED_EDGE ( 'NONE', *, *, #62, .F. ) ;
#122 = PERSON_AND_ORGANIZATION ( #54, #148 ) ;
#123 = CC_DESIGN_APPROVAL ( #109, ( #144 ) ) ;
#124 = CARTESIAN_POINT ( 'NONE',  ( 0.000000000000000000, 0.000000000000000000, 0.000000000000000000 ) ) ;
#125 = COORDINATED_UNIVERSAL_TIME_OFFSET ( 1, 0, .AHEAD. ) ;
#126 = EDGE_CURVE ( 'NONE', #100, #173, #227, .T. ) ;
#127 = PLANE ( 'NONE',  #80 ) ;
#128 = DATE_AND_TIME ( #61, #168 ) ;
#129 = PLANE ( 'NONE',  #229 ) ;
#130 = CC_DESIGN_PERSON_AND_ORGANIZATION_ASSIGNMENT ( #147, #24, ( #77 ) ) ;
#131 = DIRECTION ( 'NONE',  ( 1.000000000000000000, 0.000000000000000000, 0.000000000000000000 ) ) ;
#132 = PRODUCT_DEFINITION_SHAPE ( 'NONE', 'NONE',  #217 ) ;
#133 = APPROVAL_ROLE ( '' ) ;
#134 = DIRECTION ( 'NONE',  ( 1.000000000000000000, 0.000000000000000000, 0.000000000000000000 ) ) ;
#135 = DIRECTION ( 'NONE',  ( 1.000000000000000000, 0.000000000000000000, 0.000000000000000000 ) ) ;
#136 = CARTESIAN_POINT ( 'NONE',  ( 9.000000000000000000, 1.102182119232617714E-15, 7.000000000000000000 ) ) ;
#137 = EDGE_LOOP ( 'NONE', ( #230, #174, #22, #140 ) ) ;
#138 = DIRECTION ( 'NONE',  ( 1.000000000000000000, 0.000000000000000000, 0.000000000000000000 ) ) ;
#139 = CALENDAR_DATE ( 2023, 13, 2 ) ;
#140 = ORIENTED_EDGE ( 'NONE', *, *, #160, .T. ) ;
#141 = CALENDAR_DATE ( 2023, 13, 2 ) ;
#142 = DIRECTION ( 'NONE',  ( 0.000000000000000000, 0.000000000000000000, 1.000000000000000000 ) ) ;
#143 = PERSON_AND_ORGANIZATION ( #54, #148 ) ;
#144 = PRODUCT_DEFINITION_FORMATION_WITH_SPECIFIED_SOURCE ( 'LIBOVOLNÝ', '', #224, .NOT_KNOWN. ) ;
#145 = CARTESIAN_POINT ( 'NONE',  ( 0.000000000000000000, 0.000000000000000000, 100.0000000000000000 ) ) ;
#146 = EDGE_CURVE ( 'NONE', #152, #21, #185, .T. ) ;
#147 = PERSON_AND_ORGANIZATION ( #54, #148 ) ;
#148 = ORGANIZATION ( 'NEURÈENÝ', 'NEURÈENÝ', '' ) ;
#149 = DIRECTION ( 'NONE',  ( 0.000000000000000000, 0.000000000000000000, 1.000000000000000000 ) ) ;
#150 = LOCAL_TIME ( 11, 14, 53.00000000000000000, #66 ) ;
#151 = ORIENTED_EDGE ( 'NONE', *, *, #103, .T. ) ;
#152 = VERTEX_POINT ( 'NONE', #68 ) ;
#153 = ORIENTED_EDGE ( 'NONE', *, *, #102, .F. ) ;
#154 = DIRECTION ( 'NONE',  ( 0.000000000000000000, 0.000000000000000000, 1.000000000000000000 ) ) ;
#155 = VECTOR ( 'NONE', #186, 1000.000000000000000 ) ;
#156 = ADVANCED_BREP_SHAPE_REPRESENTATION ( '8811', ( #239, #31 ), #51 ) ;
#157 = VECTOR ( 'NONE', #39, 1000.000000000000000 ) ;
#158 = ORIENTED_EDGE ( 'NONE', *, *, #62, .T. ) ;
#159 = DIRECTION ( 'NONE',  ( -1.000000000000000000, 0.000000000000000000, 0.000000000000000000 ) ) ;
#160 = EDGE_CURVE ( 'NONE', #75, #73, #187, .T. ) ;
#161 = PERSON_AND_ORGANIZATION_ROLE ( 'design_supplier' ) ;
#162 = LOCAL_TIME ( 11, 14, 53.00000000000000000, #125 ) ;
#163 = CARTESIAN_POINT ( 'NONE',  ( 6.000000000000000888, 7.347880794884119736E-16, 7.000000000000000000 ) ) ;
#164 = CYLINDRICAL_SURFACE ( 'NONE', #196, 9.000000000000000000 ) ;
#165 = SHAPE_DEFINITION_REPRESENTATION ( #132, #156 ) ;
#166 = CC_DESIGN_DATE_AND_TIME_ASSIGNMENT ( #43, #106, ( #217 ) ) ;
#167 = CARTESIAN_POINT ( 'NONE',  ( 0.000000000000000000, 0.000000000000000000, 100.0000000000000000 ) ) ;
#168 = LOCAL_TIME ( 11, 14, 53.00000000000000000, #197 ) ;
#169 = CARTESIAN_POINT ( 'NONE',  ( 0.000000000000000000, 0.000000000000000000, 7.000000000000000000 ) ) ;
#170 = ORIENTED_EDGE ( 'NONE', *, *, #126, .T. ) ;
#171 = CYLINDRICAL_SURFACE ( 'NONE', #193, 6.000000000000000888 ) ;
#172 = CIRCLE ( 'NONE', #58, 6.000000000000000888 ) ;
#173 = VERTEX_POINT ( 'NONE', #17 ) ;
#174 = ORIENTED_EDGE ( 'NONE', *, *, #103, .F. ) ;
#175 = ORIENTED_EDGE ( 'NONE', *, *, #195, .F. ) ;
#176 = CC_DESIGN_SECURITY_CLASSIFICATION ( #77, ( #144 ) ) ;
#177 = APPROVAL_PERSON_ORGANIZATION ( #178, #223, #181 ) ;
#178 = PERSON_AND_ORGANIZATION ( #54, #148 ) ;
#179 = UNCERTAINTY_MEASURE_WITH_UNIT (LENGTH_MEASURE( 1.000000000000000082E-05 ), #42, 'distance_accuracy_value', 'NONE');
#180 = DIRECTION ( 'NONE',  ( -0.000000000000000000, -0.000000000000000000, -1.000000000000000000 ) ) ;
#181 = APPROVAL_ROLE ( '' ) ;
#182 = DIRECTION ( 'NONE',  ( -0.000000000000000000, -0.000000000000000000, -1.000000000000000000 ) ) ;
#183 = AXIS2_PLACEMENT_3D ( 'NONE', #169, #210, #131 ) ;
#184 = DIRECTION ( 'NONE',  ( 0.000000000000000000, 0.000000000000000000, 1.000000000000000000 ) ) ;
#185 = LINE ( 'NONE', #136, #203 ) ;
#186 = DIRECTION ( 'NONE',  ( -0.000000000000000000, -0.000000000000000000, -1.000000000000000000 ) ) ;
#187 = CIRCLE ( 'NONE', #233, 6.000000000000000888 ) ;
#188 = CARTESIAN_POINT ( 'NONE',  ( -9.000000000000000000, 0.000000000000000000, 7.000000000000000000 ) ) ;
#189 = AXIS2_PLACEMENT_3D ( 'NONE', #88, #182, #159 ) ;
#190 = ADVANCED_FACE ( 'NONE', ( #208 ), #53, .F. ) ;
#191 = EDGE_LOOP ( 'NONE', ( #151, #44 ) ) ;
#192 = ORIENTED_EDGE ( 'NONE', *, *, #9, .F. ) ;
#193 = AXIS2_PLACEMENT_3D ( 'NONE', #249, #72, #113 ) ;
#194 = PERSON_AND_ORGANIZATION ( #54, #148 ) ;
#195 = EDGE_CURVE ( 'NONE', #100, #152, #111, .T. ) ;
#196 = AXIS2_PLACEMENT_3D ( 'NONE', #27, #180, #86 ) ;
#197 = COORDINATED_UNIVERSAL_TIME_OFFSET ( 1, 0, .AHEAD. ) ;
#198 = FACE_OUTER_BOUND ( 'NONE', #252, .T. ) ;
#199 = PERSON_AND_ORGANIZATION_ROLE ( 'creator' ) ;
#200 = FACE_OUTER_BOUND ( 'NONE', #213, .T. ) ;
#201 = APPLICATION_PROTOCOL_DEFINITION ( 'international standard', 'config_control_design', 1994, #255 ) ;
#202 = CARTESIAN_POINT ( 'NONE',  ( 0.000000000000000000, 0.000000000000000000, 7.000000000000000000 ) ) ;
#203 = VECTOR ( 'NONE', #212, 1000.000000000000000 ) ;
#204 = DATE_TIME_ROLE ( 'classification_date' ) ;
#205 = CARTESIAN_POINT ( 'NONE',  ( -9.000000000000000000, 0.000000000000000000, 7.000000000000000000 ) ) ;
#206 = DIRECTION ( 'NONE',  ( 1.000000000000000000, 0.000000000000000000, -0.000000000000000000 ) ) ;
#207 = ADVANCED_FACE ( 'NONE', ( #94 ), #171, .T. ) ;
#208 = FACE_OUTER_BOUND ( 'NONE', #71, .T. ) ;
#209 = CIRCLE ( 'NONE', #4, 9.000000000000000000 ) ;
#210 = DIRECTION ( 'NONE',  ( 0.000000000000000000, 0.000000000000000000, 1.000000000000000000 ) ) ;
#211 = CARTESIAN_POINT ( 'NONE',  ( 0.000000000000000000, 0.000000000000000000, 7.000000000000000000 ) ) ;
#212 = DIRECTION ( 'NONE',  ( -0.000000000000000000, -0.000000000000000000, -1.000000000000000000 ) ) ;
#213 = EDGE_LOOP ( 'NONE', ( #57, #114, #3, #96 ) ) ;
#214 = AXIS2_PLACEMENT_3D ( 'NONE', #145, #142, #221 ) ;
#215 = ORIENTED_EDGE ( 'NONE', *, *, #1, .F. ) ;
#216 = CARTESIAN_POINT ( 'NONE',  ( 0.000000000000000000, 0.000000000000000000, 0.000000000000000000 ) ) ;
#217 = PRODUCT_DEFINITION ( 'NEZNÁMÝ', '', #144, #84 ) ;
#218 = ORIENTED_EDGE ( 'NONE', *, *, #160, .F. ) ;
#219 = CC_DESIGN_PERSON_AND_ORGANIZATION_ASSIGNMENT ( #7, #161, ( #144 ) ) ;
#220 = LOCAL_TIME ( 11, 14, 53.00000000000000000, #60 ) ;
#221 = DIRECTION ( 'NONE',  ( 1.000000000000000000, 0.000000000000000000, 0.000000000000000000 ) ) ;
#222 = LINE ( 'NONE', #245, #157 ) ;
#223 = APPROVAL ( #87, 'NEURÈENÝ' ) ;
#224 = PRODUCT ( '8811', '8811', '', ( #48 ) ) ;
#225 = CIRCLE ( 'NONE', #93, 6.000000000000000888 ) ;
#226 = EDGE_LOOP ( 'NONE', ( #218, #215 ) ) ;
#227 = LINE ( 'NONE', #205, #64 ) ;
#228 = APPLICATION_CONTEXT ( 'configuration controlled 3d designs of mechanical parts and assemblies' ) ;
#229 = AXIS2_PLACEMENT_3D ( 'NONE', #167, #149, #206 ) ;
#230 = ORIENTED_EDGE ( 'NONE', *, *, #235, .F. ) ;
#231 = CARTESIAN_POINT ( 'NONE',  ( 6.000000000000000888, 7.347880794884119736E-16, 100.0000000000000000 ) ) ;
#232 = ADVANCED_FACE ( 'NONE', ( #19 ), #129, .T. ) ;
#233 = AXIS2_PLACEMENT_3D ( 'NONE', #247, #34, #134 ) ;
#234 = PERSON_AND_ORGANIZATION ( #54, #148 ) ;
#235 = EDGE_CURVE ( 'NONE', #250, #73, #35, .T. ) ;
#236 = ORIENTED_EDGE ( 'NONE', *, *, #235, .T. ) ;
#237 = CARTESIAN_POINT ( 'NONE',  ( -6.000000000000000888, 0.000000000000000000, 7.000000000000000000 ) ) ;
#238 = CARTESIAN_POINT ( 'NONE',  ( 0.000000000000000000, 0.000000000000000000, 0.000000000000000000 ) ) ;
#239 = MANIFOLD_SOLID_BREP ( 'Pøidat vysunutím3', #242 ) ;
#240 = APPROVAL_DATE_TIME ( #128, #223 ) ;
#241 = DIRECTION ( 'NONE',  ( 0.000000000000000000, 0.000000000000000000, 1.000000000000000000 ) ) ;
#242 = CLOSED_SHELL ( 'NONE', ( #70, #56, #74, #95, #190, #207, #232 ) ) ;
#243 = PRODUCT_RELATED_PRODUCT_CATEGORY ( 'detail', '', ( #224 ) ) ;
#244 = DIRECTION ( 'NONE',  ( 0.000000000000000000, 0.000000000000000000, 1.000000000000000000 ) ) ;
#245 = CARTESIAN_POINT ( 'NONE',  ( -6.000000000000000888, 0.000000000000000000, 100.0000000000000000 ) ) ;
#246 = COORDINATED_UNIVERSAL_TIME_OFFSET ( 1, 0, .AHEAD. ) ;
#247 = CARTESIAN_POINT ( 'NONE',  ( 0.000000000000000000, 0.000000000000000000, 7.000000000000000000 ) ) ;
#248 = CARTESIAN_POINT ( 'NONE',  ( 0.000000000000000000, 0.000000000000000000, 7.000000000000000000 ) ) ;
#249 = CARTESIAN_POINT ( 'NONE',  ( 0.000000000000000000, 0.000000000000000000, 100.0000000000000000 ) ) ;
#250 = VERTEX_POINT ( 'NONE', #231 ) ;
#251 = DIRECTION ( 'NONE',  ( 1.000000000000000000, 0.000000000000000000, -0.000000000000000000 ) ) ;
#252 = EDGE_LOOP ( 'NONE', ( #115, #40 ) ) ;
#253 = ORIENTED_EDGE ( 'NONE', *, *, #78, .F. ) ;
#254 = APPROVAL_PERSON_ORGANIZATION ( #108, #41, #133 ) ;
#255 = APPLICATION_CONTEXT ( 'configuration controlled 3d designs of mechanical parts and assemblies' ) ;
ENDSEC;
END-ISO-10303-21;
