ISO-10303-21;
HEADER;
FILE_DESCRIPTION (( 'STEP AP203' ),
    '1' );
FILE_NAME ('0c5c.STEP',
    '2023-02-13T09:17:56',
    ( '' ),
    ( '' ),
    'SwSTEP 2.0',
    'SolidWorks 2019',
    '' );
FILE_SCHEMA (( 'CONFIG_CONTROL_DESIGN' ));
ENDSEC;

DATA;
#1 = PLANE ( 'NONE',  #37 ) ;
#2 = VECTOR ( 'NONE', #43, 1000.000000000000000 ) ;
#3 = DIRECTION ( 'NONE',  ( 0.000000000000000000, 0.000000000000000000, 1.000000000000000000 ) ) ;
#4 = LOCAL_TIME ( 10, 17, 56.00000000000000000, #195 ) ;
#5 = DIRECTION ( 'NONE',  ( 0.000000000000000000, 0.000000000000000000, 1.000000000000000000 ) ) ;
#6 = ADVANCED_FACE ( 'NONE', ( #81 ), #117, .T. ) ;
#7 = DATE_AND_TIME ( #71, #39 ) ;
#8 = DIRECTION ( 'NONE',  ( 0.000000000000000000, 0.000000000000000000, 1.000000000000000000 ) ) ;
#9 = DIRECTION ( 'NONE',  ( -1.000000000000000000, 0.000000000000000000, 0.000000000000000000 ) ) ;
#10 = DIRECTION ( 'NONE',  ( 0.000000000000000000, 0.000000000000000000, 1.000000000000000000 ) ) ;
#11 = CIRCLE ( 'NONE', #157, 9.000000000000000000 ) ;
#12 = ORIENTED_EDGE ( 'NONE', *, *, #59, .F. ) ;
#13 = VECTOR ( 'NONE', #127, 1000.000000000000000 ) ;
#14 = AXIS2_PLACEMENT_3D ( 'NONE', #54, #5, #114 ) ;
#15 = DIRECTION ( 'NONE',  ( 1.000000000000000000, 0.000000000000000000, 0.000000000000000000 ) ) ;
#16 = DATE_AND_TIME ( #131, #72 ) ;
#17 = EDGE_CURVE ( 'NONE', #82, #44, #129, .T. ) ;
#18 = ORIENTED_EDGE ( 'NONE', *, *, #190, .T. ) ;
#19 = APPROVAL_ROLE ( '' ) ;
#20 = DIRECTION ( 'NONE',  ( 0.000000000000000000, 0.000000000000000000, 1.000000000000000000 ) ) ;
#21 = DATE_TIME_ROLE ( 'classification_date' ) ;
#22 = ORIENTED_EDGE ( 'NONE', *, *, #53, .F. ) ;
#23 = CC_DESIGN_SECURITY_CLASSIFICATION ( #119, ( #220 ) ) ;
#24 = DIRECTION ( 'NONE',  ( 1.000000000000000000, 0.000000000000000000, 0.000000000000000000 ) ) ;
#25 = CYLINDRICAL_SURFACE ( 'NONE', #125, 9.000000000000000000 ) ;
#26 = DATE_AND_TIME ( #173, #243 ) ;
#27 = CALENDAR_DATE ( 2023, 13, 2 ) ;
#28 = DIRECTION ( 'NONE',  ( 0.000000000000000000, 0.000000000000000000, 1.000000000000000000 ) ) ;
#29 = DIRECTION ( 'NONE',  ( 0.000000000000000000, 0.000000000000000000, 1.000000000000000000 ) ) ;
#30 = EDGE_CURVE ( 'NONE', #82, #98, #255, .T. ) ;
#31 = FACE_OUTER_BOUND ( 'NONE', #80, .T. ) ;
#32 = AXIS2_PLACEMENT_3D ( 'NONE', #69, #241, #205 ) ;
#33 =( GEOMETRIC_REPRESENTATION_CONTEXT ( 3 ) GLOBAL_UNCERTAINTY_ASSIGNED_CONTEXT ( ( #48 ) ) GLOBAL_UNIT_ASSIGNED_CONTEXT ( ( #222, #47, #165 ) ) REPRESENTATION_CONTEXT ( 'NONE', 'WORKASPACE' ) );
#34 = VERTEX_POINT ( 'NONE', #100 ) ;
#35 = CC_DESIGN_DATE_AND_TIME_ASSIGNMENT ( #26, #240, ( #179 ) ) ;
#36 = VERTEX_POINT ( 'NONE', #106 ) ;
#37 = AXIS2_PLACEMENT_3D ( 'NONE', #253, #88, #141 ) ;
#38 = APPLICATION_PROTOCOL_DEFINITION ( 'international standard', 'config_control_design', 1994, #158 ) ;
#39 = LOCAL_TIME ( 10, 17, 56.00000000000000000, #176 ) ;
#40 = CARTESIAN_POINT ( 'NONE',  ( 9.000000000000000000, 1.102182119232617714E-15, 7.000000000000000000 ) ) ;
#41 = APPROVAL ( #188, 'NEURÈENÝ' ) ;
#42 = CARTESIAN_POINT ( 'NONE',  ( -6.000000000000000888, 0.000000000000000000, 315.0000000000000000 ) ) ;
#43 = DIRECTION ( 'NONE',  ( -0.000000000000000000, -0.000000000000000000, -1.000000000000000000 ) ) ;
#44 = VERTEX_POINT ( 'NONE', #65 ) ;
#45 = DIRECTION ( 'NONE',  ( 1.000000000000000000, 0.000000000000000000, 0.000000000000000000 ) ) ;
#46 = PERSON_AND_ORGANIZATION ( #249, #234 ) ;
#47 =( NAMED_UNIT ( * ) PLANE_ANGLE_UNIT ( ) SI_UNIT ( $, .RADIAN. ) );
#48 = UNCERTAINTY_MEASURE_WITH_UNIT (LENGTH_MEASURE( 1.000000000000000082E-05 ), #222, 'distance_accuracy_value', 'NONE');
#49 = PERSON_AND_ORGANIZATION ( #249, #234 ) ;
#50 = DIRECTION ( 'NONE',  ( 1.000000000000000000, 0.000000000000000000, 0.000000000000000000 ) ) ;
#51 = PRODUCT_RELATED_PRODUCT_CATEGORY ( 'detail', '', ( #181 ) ) ;
#52 = DIRECTION ( 'NONE',  ( -0.000000000000000000, -0.000000000000000000, -1.000000000000000000 ) ) ;
#53 = EDGE_CURVE ( 'NONE', #36, #67, #126, .T. ) ;
#54 = CARTESIAN_POINT ( 'NONE',  ( 0.000000000000000000, 0.000000000000000000, 315.0000000000000000 ) ) ;
#55 = DIRECTION ( 'NONE',  ( 1.000000000000000000, 0.000000000000000000, 0.000000000000000000 ) ) ;
#56 = APPROVAL_PERSON_ORGANIZATION ( #61, #198, #19 ) ;
#57 = ORIENTED_EDGE ( 'NONE', *, *, #59, .T. ) ;
#58 = EDGE_LOOP ( 'NONE', ( #102, #148 ) ) ;
#59 = EDGE_CURVE ( 'NONE', #67, #124, #11, .T. ) ;
#60 = FACE_BOUND ( 'NONE', #161, .T. ) ;
#61 = PERSON_AND_ORGANIZATION ( #249, #234 ) ;
#62 = DIRECTION ( 'NONE',  ( -1.000000000000000000, 0.000000000000000000, 0.000000000000000000 ) ) ;
#63 = DATE_AND_TIME ( #175, #166 ) ;
#64 = EDGE_LOOP ( 'NONE', ( #12, #216 ) ) ;
#65 = CARTESIAN_POINT ( 'NONE',  ( 6.000000000000000888, 7.347880794884120722E-16, 315.0000000000000000 ) ) ;
#66 = APPROVAL_PERSON_ORGANIZATION ( #46, #228, #118 ) ;
#67 = VERTEX_POINT ( 'NONE', #232 ) ;
#68 = PERSON_AND_ORGANIZATION_ROLE ( 'creator' ) ;
#69 = CARTESIAN_POINT ( 'NONE',  ( 0.000000000000000000, 0.000000000000000000, 315.0000000000000000 ) ) ;
#70 = CIRCLE ( 'NONE', #138, 9.000000000000000000 ) ;
#71 = CALENDAR_DATE ( 2023, 13, 2 ) ;
#72 = LOCAL_TIME ( 10, 17, 56.00000000000000000, #192 ) ;
#73 = CARTESIAN_POINT ( 'NONE',  ( -6.000000000000000888, 0.000000000000000000, 7.000000000000000000 ) ) ;
#74 = CC_DESIGN_PERSON_AND_ORGANIZATION_ASSIGNMENT ( #223, #84, ( #220 ) ) ;
#75 = APPROVAL_PERSON_ORGANIZATION ( #76, #41, #130 ) ;
#76 = PERSON_AND_ORGANIZATION ( #249, #234 ) ;
#77 = ORIENTED_EDGE ( 'NONE', *, *, #30, .F. ) ;
#78 = ORIENTED_EDGE ( 'NONE', *, *, #30, .T. ) ;
#79 = VECTOR ( 'NONE', #121, 1000.000000000000000 ) ;
#80 = EDGE_LOOP ( 'NONE', ( #178, #104, #250, #57 ) ) ;
#81 = FACE_OUTER_BOUND ( 'NONE', #248, .T. ) ;
#82 = VERTEX_POINT ( 'NONE', #180 ) ;
#83 = CIRCLE ( 'NONE', #224, 9.000000000000000000 ) ;
#84 = PERSON_AND_ORGANIZATION_ROLE ( 'design_supplier' ) ;
#85 = AXIS2_PLACEMENT_3D ( 'NONE', #91, #28, #206 ) ;
#86 = LINE ( 'NONE', #40, #79 ) ;
#87 = EDGE_LOOP ( 'NONE', ( #211, #233, #212, #77 ) ) ;
#88 = DIRECTION ( 'NONE',  ( 0.000000000000000000, 0.000000000000000000, 1.000000000000000000 ) ) ;
#89 = ADVANCED_FACE ( 'NONE', ( #60, #177 ), #1, .T. ) ;
#90 = DIRECTION ( 'NONE',  ( 1.000000000000000000, 0.000000000000000000, -0.000000000000000000 ) ) ;
#91 = CARTESIAN_POINT ( 'NONE',  ( 0.000000000000000000, 0.000000000000000000, 7.000000000000000000 ) ) ;
#92 = ADVANCED_BREP_SHAPE_REPRESENTATION ( '0c5c', ( #242, #105 ), #33 ) ;
#93 = SHAPE_DEFINITION_REPRESENTATION ( #229, #92 ) ;
#94 = CIRCLE ( 'NONE', #214, 6.000000000000000888 ) ;
#95 = CARTESIAN_POINT ( 'NONE',  ( 0.000000000000000000, 0.000000000000000000, 7.000000000000000000 ) ) ;
#96 = EDGE_CURVE ( 'NONE', #251, #124, #86, .T. ) ;
#97 = FACE_OUTER_BOUND ( 'NONE', #64, .T. ) ;
#98 = VERTEX_POINT ( 'NONE', #73 ) ;
#99 = EDGE_CURVE ( 'NONE', #251, #36, #83, .T. ) ;
#100 = CARTESIAN_POINT ( 'NONE',  ( 6.000000000000000888, 7.347880794884120722E-16, 7.000000000000000000 ) ) ;
#101 = PERSON_AND_ORGANIZATION ( #249, #234 ) ;
#102 = ORIENTED_EDGE ( 'NONE', *, *, #185, .T. ) ;
#103 = PERSON_AND_ORGANIZATION_ROLE ( 'creator' ) ;
#104 = ORIENTED_EDGE ( 'NONE', *, *, #185, .F. ) ;
#105 = AXIS2_PLACEMENT_3D ( 'NONE', #189, #10, #55 ) ;
#106 = CARTESIAN_POINT ( 'NONE',  ( -9.000000000000000000, 0.000000000000000000, 7.000000000000000000 ) ) ;
#107 = PLANE ( 'NONE',  #153 ) ;
#108 = CLOSED_SHELL ( 'NONE', ( #168, #116, #236, #89, #237, #6, #171 ) ) ;
#109 = AXIS2_PLACEMENT_3D ( 'NONE', #134, #111, #227 ) ;
#110 = COORDINATED_UNIVERSAL_TIME_OFFSET ( 1, 0, .AHEAD. ) ;
#111 = DIRECTION ( 'NONE',  ( 0.000000000000000000, 0.000000000000000000, 1.000000000000000000 ) ) ;
#112 = DESIGN_CONTEXT ( 'detailed design', #158, 'design' ) ;
#113 = DATE_AND_TIME ( #27, #4 ) ;
#114 = DIRECTION ( 'NONE',  ( 1.000000000000000000, 0.000000000000000000, 0.000000000000000000 ) ) ;
#115 = CARTESIAN_POINT ( 'NONE',  ( 0.000000000000000000, 0.000000000000000000, 7.000000000000000000 ) ) ;
#116 = ADVANCED_FACE ( 'NONE', ( #149 ), #135, .T. ) ;
#117 = CYLINDRICAL_SURFACE ( 'NONE', #246, 6.000000000000000888 ) ;
#118 = APPROVAL_ROLE ( '' ) ;
#119 = SECURITY_CLASSIFICATION ( '', '', #235 ) ;
#120 = CC_DESIGN_PERSON_AND_ORGANIZATION_ASSIGNMENT ( #252, #68, ( #220 ) ) ;
#121 = DIRECTION ( 'NONE',  ( -0.000000000000000000, -0.000000000000000000, -1.000000000000000000 ) ) ;
#122 = DIRECTION ( 'NONE',  ( -0.000000000000000000, -0.000000000000000000, -1.000000000000000000 ) ) ;
#123 = APPROVAL_DATE_TIME ( #63, #198 ) ;
#124 = VERTEX_POINT ( 'NONE', #199 ) ;
#125 = AXIS2_PLACEMENT_3D ( 'NONE', #115, #151, #9 ) ;
#126 = LINE ( 'NONE', #197, #2 ) ;
#127 = DIRECTION ( 'NONE',  ( -0.000000000000000000, -0.000000000000000000, -1.000000000000000000 ) ) ;
#128 = DIRECTION ( 'NONE',  ( 1.000000000000000000, 0.000000000000000000, 0.000000000000000000 ) ) ;
#129 = CIRCLE ( 'NONE', #186, 6.000000000000000888 ) ;
#130 = APPROVAL_ROLE ( '' ) ;
#131 = CALENDAR_DATE ( 2023, 13, 2 ) ;
#132 = CARTESIAN_POINT ( 'NONE',  ( 0.000000000000000000, 0.000000000000000000, 0.000000000000000000 ) ) ;
#133 = CC_DESIGN_PERSON_AND_ORGANIZATION_ASSIGNMENT ( #213, #239, ( #181 ) ) ;
#134 = CARTESIAN_POINT ( 'NONE',  ( 0.000000000000000000, 0.000000000000000000, 7.000000000000000000 ) ) ;
#135 = CYLINDRICAL_SURFACE ( 'NONE', #209, 9.000000000000000000 ) ;
#136 = MECHANICAL_CONTEXT ( 'NONE', #150, 'mechanical' ) ;
#137 = CIRCLE ( 'NONE', #14, 6.000000000000000888 ) ;
#138 = AXIS2_PLACEMENT_3D ( 'NONE', #132, #245, #45 ) ;
#139 = CC_DESIGN_APPROVAL ( #41, ( #119 ) ) ;
#140 = ORIENTED_EDGE ( 'NONE', *, *, #17, .F. ) ;
#141 = DIRECTION ( 'NONE',  ( 1.000000000000000000, 0.000000000000000000, -0.000000000000000000 ) ) ;
#142 = EDGE_CURVE ( 'NONE', #34, #98, #94, .T. ) ;
#143 = APPROVAL_STATUS ( 'not_yet_approved' ) ;
#144 = CARTESIAN_POINT ( 'NONE',  ( 0.000000000000000000, 0.000000000000000000, 315.0000000000000000 ) ) ;
#145 = PERSON_AND_ORGANIZATION_ROLE ( 'classification_officer' ) ;
#146 = EDGE_CURVE ( 'NONE', #124, #67, #70, .T. ) ;
#147 = ORIENTED_EDGE ( 'NONE', *, *, #142, .F. ) ;
#148 = ORIENTED_EDGE ( 'NONE', *, *, #99, .T. ) ;
#149 = FACE_OUTER_BOUND ( 'NONE', #238, .T. ) ;
#150 = APPLICATION_CONTEXT ( 'configuration controlled 3d designs of mechanical parts and assemblies' ) ;
#151 = DIRECTION ( 'NONE',  ( -0.000000000000000000, -0.000000000000000000, -1.000000000000000000 ) ) ;
#152 = DIRECTION ( 'NONE',  ( 0.000000000000000000, 0.000000000000000000, 1.000000000000000000 ) ) ;
#153 = AXIS2_PLACEMENT_3D ( 'NONE', #182, #3, #90 ) ;
#154 = FACE_OUTER_BOUND ( 'NONE', #193, .T. ) ;
#155 = CARTESIAN_POINT ( 'NONE',  ( 0.000000000000000000, 0.000000000000000000, 7.000000000000000000 ) ) ;
#156 = APPLICATION_PROTOCOL_DEFINITION ( 'international standard', 'config_control_design', 1994, #150 ) ;
#157 = AXIS2_PLACEMENT_3D ( 'NONE', #194, #20, #24 ) ;
#158 = APPLICATION_CONTEXT ( 'configuration controlled 3d designs of mechanical parts and assemblies' ) ;
#159 = CARTESIAN_POINT ( 'NONE',  ( 0.000000000000000000, 0.000000000000000000, 315.0000000000000000 ) ) ;
#160 = ORIENTED_EDGE ( 'NONE', *, *, #218, .F. ) ;
#161 = EDGE_LOOP ( 'NONE', ( #160, #147 ) ) ;
#162 = ORIENTED_EDGE ( 'NONE', *, *, #146, .T. ) ;
#163 = CC_DESIGN_APPROVAL ( #228, ( #179 ) ) ;
#164 = CARTESIAN_POINT ( 'NONE',  ( 9.000000000000000000, 1.102182119232617714E-15, 7.000000000000000000 ) ) ;
#165 =( NAMED_UNIT ( * ) SI_UNIT ( $, .STERADIAN. ) SOLID_ANGLE_UNIT ( ) );
#166 = LOCAL_TIME ( 10, 17, 56.00000000000000000, #110 ) ;
#167 = DIRECTION ( 'NONE',  ( 1.000000000000000000, 0.000000000000000000, -0.000000000000000000 ) ) ;
#168 = ADVANCED_FACE ( 'NONE', ( #221 ), #187, .T. ) ;
#169 = CARTESIAN_POINT ( 'NONE',  ( 0.000000000000000000, 0.000000000000000000, 7.000000000000000000 ) ) ;
#170 = ORIENTED_EDGE ( 'NONE', *, *, #17, .T. ) ;
#171 = ADVANCED_FACE ( 'NONE', ( #154 ), #225, .T. ) ;
#172 = ORIENTED_EDGE ( 'NONE', *, *, #99, .F. ) ;
#173 = CALENDAR_DATE ( 2023, 13, 2 ) ;
#174 = ORIENTED_EDGE ( 'NONE', *, *, #200, .F. ) ;
#175 = CALENDAR_DATE ( 2023, 13, 2 ) ;
#176 = COORDINATED_UNIVERSAL_TIME_OFFSET ( 1, 0, .AHEAD. ) ;
#177 = FACE_OUTER_BOUND ( 'NONE', #58, .T. ) ;
#178 = ORIENTED_EDGE ( 'NONE', *, *, #96, .F. ) ;
#179 = PRODUCT_DEFINITION ( 'NEZNÁMÝ', '', #220, #112 ) ;
#180 = CARTESIAN_POINT ( 'NONE',  ( -6.000000000000000888, 0.000000000000000000, 315.0000000000000000 ) ) ;
#181 = PRODUCT ( '0c5c', '0c5c', '', ( #136 ) ) ;
#182 = CARTESIAN_POINT ( 'NONE',  ( 0.000000000000000000, 0.000000000000000000, 0.000000000000000000 ) ) ;
#183 = CARTESIAN_POINT ( 'NONE',  ( 0.000000000000000000, 0.000000000000000000, 315.0000000000000000 ) ) ;
#184 = LINE ( 'NONE', #244, #13 ) ;
#185 = EDGE_CURVE ( 'NONE', #36, #251, #231, .T. ) ;
#186 = AXIS2_PLACEMENT_3D ( 'NONE', #144, #191, #15 ) ;
#187 = CYLINDRICAL_SURFACE ( 'NONE', #32, 6.000000000000000888 ) ;
#188 = APPROVAL_STATUS ( 'not_yet_approved' ) ;
#189 = CARTESIAN_POINT ( 'NONE',  ( 0.000000000000000000, 0.000000000000000000, 0.000000000000000000 ) ) ;
#190 = EDGE_CURVE ( 'NONE', #44, #82, #137, .T. ) ;
#191 = DIRECTION ( 'NONE',  ( 0.000000000000000000, 0.000000000000000000, 1.000000000000000000 ) ) ;
#192 = COORDINATED_UNIVERSAL_TIME_OFFSET ( 1, 0, .AHEAD. ) ;
#193 = EDGE_LOOP ( 'NONE', ( #170, #18 ) ) ;
#194 = CARTESIAN_POINT ( 'NONE',  ( 0.000000000000000000, 0.000000000000000000, 0.000000000000000000 ) ) ;
#195 = COORDINATED_UNIVERSAL_TIME_OFFSET ( 1, 0, .AHEAD. ) ;
#196 = VECTOR ( 'NONE', #122, 1000.000000000000000 ) ;
#197 = CARTESIAN_POINT ( 'NONE',  ( -9.000000000000000000, 0.000000000000000000, 7.000000000000000000 ) ) ;
#198 = APPROVAL ( #143, 'NEURÈENÝ' ) ;
#199 = CARTESIAN_POINT ( 'NONE',  ( 9.000000000000000000, 1.102182119232617714E-15, 0.000000000000000000 ) ) ;
#200 = EDGE_CURVE ( 'NONE', #44, #34, #184, .T. ) ;
#201 = COORDINATED_UNIVERSAL_TIME_OFFSET ( 1, 0, .AHEAD. ) ;
#202 = DIRECTION ( 'NONE',  ( -1.000000000000000000, 0.000000000000000000, 0.000000000000000000 ) ) ;
#203 = APPROVAL_DATE_TIME ( #16, #228 ) ;
#204 = CC_DESIGN_DATE_AND_TIME_ASSIGNMENT ( #113, #21, ( #119 ) ) ;
#205 = DIRECTION ( 'NONE',  ( -1.000000000000000000, 0.000000000000000000, 0.000000000000000000 ) ) ;
#206 = DIRECTION ( 'NONE',  ( 1.000000000000000000, 0.000000000000000000, 0.000000000000000000 ) ) ;
#207 = CC_DESIGN_PERSON_AND_ORGANIZATION_ASSIGNMENT ( #101, #103, ( #179 ) ) ;
#208 = ORIENTED_EDGE ( 'NONE', *, *, #96, .T. ) ;
#209 = AXIS2_PLACEMENT_3D ( 'NONE', #95, #52, #202 ) ;
#210 = AXIS2_PLACEMENT_3D ( 'NONE', #183, #152, #167 ) ;
#211 = ORIENTED_EDGE ( 'NONE', *, *, #190, .F. ) ;
#212 = ORIENTED_EDGE ( 'NONE', *, *, #142, .T. ) ;
#213 = PERSON_AND_ORGANIZATION ( #249, #234 ) ;
#214 = AXIS2_PLACEMENT_3D ( 'NONE', #169, #29, #50 ) ;
#215 = ORIENTED_EDGE ( 'NONE', *, *, #218, .T. ) ;
#216 = ORIENTED_EDGE ( 'NONE', *, *, #146, .F. ) ;
#217 = APPROVAL_STATUS ( 'not_yet_approved' ) ;
#218 = EDGE_CURVE ( 'NONE', #98, #34, #254, .T. ) ;
#219 = DIRECTION ( 'NONE',  ( -0.000000000000000000, -0.000000000000000000, -1.000000000000000000 ) ) ;
#220 = PRODUCT_DEFINITION_FORMATION_WITH_SPECIFIED_SOURCE ( 'LIBOVOLNÝ', '', #181, .NOT_KNOWN. ) ;
#221 = FACE_OUTER_BOUND ( 'NONE', #87, .T. ) ;
#222 =( LENGTH_UNIT ( ) NAMED_UNIT ( * ) SI_UNIT ( .MILLI., .METRE. ) );
#223 = PERSON_AND_ORGANIZATION ( #249, #234 ) ;
#224 = AXIS2_PLACEMENT_3D ( 'NONE', #155, #8, #128 ) ;
#225 = PLANE ( 'NONE',  #210 ) ;
#226 = APPROVAL_DATE_TIME ( #7, #41 ) ;
#227 = DIRECTION ( 'NONE',  ( 1.000000000000000000, 0.000000000000000000, 0.000000000000000000 ) ) ;
#228 = APPROVAL ( #217, 'NEURÈENÝ' ) ;
#229 = PRODUCT_DEFINITION_SHAPE ( 'NONE', 'NONE',  #179 ) ;
#230 = CC_DESIGN_APPROVAL ( #198, ( #220 ) ) ;
#231 = CIRCLE ( 'NONE', #109, 9.000000000000000000 ) ;
#232 = CARTESIAN_POINT ( 'NONE',  ( -9.000000000000000000, 0.000000000000000000, 0.000000000000000000 ) ) ;
#233 = ORIENTED_EDGE ( 'NONE', *, *, #200, .T. ) ;
#234 = ORGANIZATION ( 'NEURÈENÝ', 'NEURÈENÝ', '' ) ;
#235 = SECURITY_CLASSIFICATION_LEVEL ( 'unclassified' ) ;
#236 = ADVANCED_FACE ( 'NONE', ( #31 ), #25, .T. ) ;
#237 = ADVANCED_FACE ( 'NONE', ( #97 ), #107, .F. ) ;
#238 = EDGE_LOOP ( 'NONE', ( #172, #208, #162, #22 ) ) ;
#239 = PERSON_AND_ORGANIZATION_ROLE ( 'design_owner' ) ;
#240 = DATE_TIME_ROLE ( 'creation_date' ) ;
#241 = DIRECTION ( 'NONE',  ( -0.000000000000000000, -0.000000000000000000, -1.000000000000000000 ) ) ;
#242 = MANIFOLD_SOLID_BREP ( 'Pøidat vysunutím3', #108 ) ;
#243 = LOCAL_TIME ( 10, 17, 56.00000000000000000, #201 ) ;
#244 = CARTESIAN_POINT ( 'NONE',  ( 6.000000000000000888, 7.347880794884120722E-16, 315.0000000000000000 ) ) ;
#245 = DIRECTION ( 'NONE',  ( 0.000000000000000000, 0.000000000000000000, 1.000000000000000000 ) ) ;
#246 = AXIS2_PLACEMENT_3D ( 'NONE', #159, #219, #62 ) ;
#247 = CC_DESIGN_PERSON_AND_ORGANIZATION_ASSIGNMENT ( #49, #145, ( #119 ) ) ;
#248 = EDGE_LOOP ( 'NONE', ( #174, #140, #78, #215 ) ) ;
#249 = PERSON ( 'NEURÈENÝ', 'NEURÈENÝ', 'NEURÈENÝ', ('NEURÈENÝ'), ('NEURÈENÝ'), ('NEURÈENÝ') ) ;
#250 = ORIENTED_EDGE ( 'NONE', *, *, #53, .T. ) ;
#251 = VERTEX_POINT ( 'NONE', #164 ) ;
#252 = PERSON_AND_ORGANIZATION ( #249, #234 ) ;
#253 = CARTESIAN_POINT ( 'NONE',  ( 0.000000000000000000, 0.000000000000000000, 7.000000000000000000 ) ) ;
#254 = CIRCLE ( 'NONE', #85, 6.000000000000000888 ) ;
#255 = LINE ( 'NONE', #42, #196 ) ;
ENDSEC;
END-ISO-10303-21;
