ISO-10303-21;
HEADER;
FILE_DESCRIPTION (( 'STEP AP203' ),
    '1' );
FILE_NAME ('82ea.STEP',
    '2023-02-13T07:48:44',
    ( '' ),
    ( '' ),
    'SwSTEP 2.0',
    'SolidWorks 2019',
    '' );
FILE_SCHEMA (( 'CONFIG_CONTROL_DESIGN' ));
ENDSEC;

DATA;
#1 = DATE_TIME_ROLE ( 'classification_date' ) ;
#2 = ORIENTED_EDGE ( 'NONE', *, *, #8, .F. ) ;
#3 = EDGE_CURVE ( 'NONE', #244, #145, #90, .T. ) ;
#4 = FACE_OUTER_BOUND ( 'NONE', #105, .T. ) ;
#5 = ORIENTED_EDGE ( 'NONE', *, *, #201, .T. ) ;
#6 = ORIENTED_EDGE ( 'NONE', *, *, #114, .F. ) ;
#7 = EDGE_LOOP ( 'NONE', ( #126, #203 ) ) ;
#8 = EDGE_CURVE ( 'NONE', #164, #144, #205, .T. ) ;
#9 = PLANE ( 'NONE',  #91 ) ;
#10 = AXIS2_PLACEMENT_3D ( 'NONE', #97, #57, #40 ) ;
#11 = CC_DESIGN_PERSON_AND_ORGANIZATION_ASSIGNMENT ( #115, #18, ( #189 ) ) ;
#12 = DIRECTION ( 'NONE',  ( -0.000000000000000000, -0.000000000000000000, -1.000000000000000000 ) ) ;
#13 = PERSON_AND_ORGANIZATION_ROLE ( 'creator' ) ;
#14 = AXIS2_PLACEMENT_3D ( 'NONE', #245, #188, #48 ) ;
#15 = EDGE_LOOP ( 'NONE', ( #2, #6 ) ) ;
#16 = PERSON_AND_ORGANIZATION ( #173, #162 ) ;
#17 = CC_DESIGN_DATE_AND_TIME_ASSIGNMENT ( #176, #1, ( #189 ) ) ;
#18 = PERSON_AND_ORGANIZATION_ROLE ( 'classification_officer' ) ;
#19 = CYLINDRICAL_SURFACE ( 'NONE', #10, 10.00000000000000000 ) ;
#20 = EDGE_CURVE ( 'NONE', #76, #80, #45, .T. ) ;
#21 = DATE_AND_TIME ( #254, #41 ) ;
#22 = ADVANCED_BREP_SHAPE_REPRESENTATION ( '82ea', ( #63, #65 ), #156 ) ;
#23 = VECTOR ( 'NONE', #30, 1000.000000000000000 ) ;
#24 = CC_DESIGN_APPROVAL ( #38, ( #248 ) ) ;
#25 = CARTESIAN_POINT ( 'NONE',  ( 0.000000000000000000, 0.000000000000000000, 315.0000000000000000 ) ) ;
#26 = CARTESIAN_POINT ( 'NONE',  ( 0.000000000000000000, 0.000000000000000000, 315.0000000000000000 ) ) ;
#27 = DIRECTION ( 'NONE',  ( 0.000000000000000000, 0.000000000000000000, 1.000000000000000000 ) ) ;
#28 = ORIENTED_EDGE ( 'NONE', *, *, #146, .F. ) ;
#29 = CARTESIAN_POINT ( 'NONE',  ( 0.000000000000000000, 0.000000000000000000, 8.000000000000000000 ) ) ;
#30 = DIRECTION ( 'NONE',  ( -0.000000000000000000, -0.000000000000000000, -1.000000000000000000 ) ) ;
#31 = CARTESIAN_POINT ( 'NONE',  ( -10.00000000000000000, 0.000000000000000000, 315.0000000000000000 ) ) ;
#32 =( LENGTH_UNIT ( ) NAMED_UNIT ( * ) SI_UNIT ( .MILLI., .METRE. ) );
#33 = CC_DESIGN_PERSON_AND_ORGANIZATION_ASSIGNMENT ( #213, #134, ( #178 ) ) ;
#34 = CIRCLE ( 'NONE', #96, 10.00000000000000000 ) ;
#35 = SHAPE_DEFINITION_REPRESENTATION ( #122, #22 ) ;
#36 = APPROVAL_DATE_TIME ( #56, #38 ) ;
#37 = EDGE_LOOP ( 'NONE', ( #124, #238, #44, #224 ) ) ;
#38 = APPROVAL ( #217, 'NEURÈENÝ' ) ;
#39 = APPROVAL_DATE_TIME ( #214, #77 ) ;
#40 = DIRECTION ( 'NONE',  ( -1.000000000000000000, 0.000000000000000000, 0.000000000000000000 ) ) ;
#41 = LOCAL_TIME ( 8, 48, 44.00000000000000000, #121 ) ;
#42 = CARTESIAN_POINT ( 'NONE',  ( 0.000000000000000000, 0.000000000000000000, 8.000000000000000000 ) ) ;
#43 = EDGE_LOOP ( 'NONE', ( #79, #70 ) ) ;
#44 = ORIENTED_EDGE ( 'NONE', *, *, #20, .T. ) ;
#45 = CIRCLE ( 'NONE', #192, 13.00000000000000178 ) ;
#46 = LINE ( 'NONE', #249, #23 ) ;
#47 = DIRECTION ( 'NONE',  ( 1.000000000000000000, 0.000000000000000000, 0.000000000000000000 ) ) ;
#48 = DIRECTION ( 'NONE',  ( 1.000000000000000000, 0.000000000000000000, 0.000000000000000000 ) ) ;
#49 = DIRECTION ( 'NONE',  ( -1.000000000000000000, 0.000000000000000000, 0.000000000000000000 ) ) ;
#50 = FACE_OUTER_BOUND ( 'NONE', #43, .T. ) ;
#51 = PERSON_AND_ORGANIZATION ( #173, #162 ) ;
#52 = CC_DESIGN_APPROVAL ( #77, ( #189 ) ) ;
#53 = DIRECTION ( 'NONE',  ( 1.000000000000000000, 0.000000000000000000, 0.000000000000000000 ) ) ;
#54 = CC_DESIGN_DATE_AND_TIME_ASSIGNMENT ( #239, #219, ( #250 ) ) ;
#55 = DIRECTION ( 'NONE',  ( 0.000000000000000000, 0.000000000000000000, 1.000000000000000000 ) ) ;
#56 = DATE_AND_TIME ( #215, #153 ) ;
#57 = DIRECTION ( 'NONE',  ( -0.000000000000000000, -0.000000000000000000, -1.000000000000000000 ) ) ;
#58 = AXIS2_PLACEMENT_3D ( 'NONE', #26, #27, #104 ) ;
#59 = CALENDAR_DATE ( 2023, 13, 2 ) ;
#60 = DIRECTION ( 'NONE',  ( -0.000000000000000000, -0.000000000000000000, -1.000000000000000000 ) ) ;
#61 = ORIENTED_EDGE ( 'NONE', *, *, #201, .F. ) ;
#62 = ORIENTED_EDGE ( 'NONE', *, *, #210, .F. ) ;
#63 = MANIFOLD_SOLID_BREP ( 'Pøidat vysunutím3', #83 ) ;
#64 =( NAMED_UNIT ( * ) SI_UNIT ( $, .STERADIAN. ) SOLID_ANGLE_UNIT ( ) );
#65 = AXIS2_PLACEMENT_3D ( 'NONE', #232, #113, #53 ) ;
#66 = CARTESIAN_POINT ( 'NONE',  ( 0.000000000000000000, 0.000000000000000000, 8.000000000000000000 ) ) ;
#67 = APPROVAL ( #142, 'NEURÈENÝ' ) ;
#68 = DIRECTION ( 'NONE',  ( 1.000000000000000000, 0.000000000000000000, -0.000000000000000000 ) ) ;
#69 = DIRECTION ( 'NONE',  ( -0.000000000000000000, -0.000000000000000000, -1.000000000000000000 ) ) ;
#70 = ORIENTED_EDGE ( 'NONE', *, *, #20, .F. ) ;
#71 = LINE ( 'NONE', #154, #112 ) ;
#72 = PERSON_AND_ORGANIZATION ( #173, #162 ) ;
#73 = CIRCLE ( 'NONE', #241, 13.00000000000000178 ) ;
#74 = APPROVAL_DATE_TIME ( #21, #67 ) ;
#75 = LOCAL_TIME ( 8, 48, 44.00000000000000000, #172 ) ;
#76 = VERTEX_POINT ( 'NONE', #163 ) ;
#77 = APPROVAL ( #137, 'NEURÈENÝ' ) ;
#78 = CYLINDRICAL_SURFACE ( 'NONE', #212, 10.00000000000000000 ) ;
#79 = ORIENTED_EDGE ( 'NONE', *, *, #231, .F. ) ;
#80 = VERTEX_POINT ( 'NONE', #116 ) ;
#81 = DIRECTION ( 'NONE',  ( 1.000000000000000000, 0.000000000000000000, 0.000000000000000000 ) ) ;
#82 = CARTESIAN_POINT ( 'NONE',  ( 0.000000000000000000, 0.000000000000000000, 0.000000000000000000 ) ) ;
#83 = CLOSED_SHELL ( 'NONE', ( #84, #150, #220, #131, #181, #102, #88 ) ) ;
#84 = ADVANCED_FACE ( 'NONE', ( #198 ), #19, .T. ) ;
#85 = AXIS2_PLACEMENT_3D ( 'NONE', #191, #130, #151 ) ;
#86 = DIRECTION ( 'NONE',  ( -0.000000000000000000, -0.000000000000000000, -1.000000000000000000 ) ) ;
#87 = FACE_OUTER_BOUND ( 'NONE', #37, .T. ) ;
#88 = ADVANCED_FACE ( 'NONE', ( #119 ), #199, .T. ) ;
#89 = CARTESIAN_POINT ( 'NONE',  ( 0.000000000000000000, 0.000000000000000000, 8.000000000000000000 ) ) ;
#90 = CIRCLE ( 'NONE', #58, 10.00000000000000000 ) ;
#91 = AXIS2_PLACEMENT_3D ( 'NONE', #82, #211, #68 ) ;
#92 = APPROVAL_ROLE ( '' ) ;
#93 = COORDINATED_UNIVERSAL_TIME_OFFSET ( 1, 0, .AHEAD. ) ;
#94 = COORDINATED_UNIVERSAL_TIME_OFFSET ( 1, 0, .AHEAD. ) ;
#95 = LOCAL_TIME ( 8, 48, 44.00000000000000000, #94 ) ;
#96 = AXIS2_PLACEMENT_3D ( 'NONE', #129, #229, #47 ) ;
#97 = CARTESIAN_POINT ( 'NONE',  ( 0.000000000000000000, 0.000000000000000000, 315.0000000000000000 ) ) ;
#98 = APPROVAL_ROLE ( '' ) ;
#99 = AXIS2_PLACEMENT_3D ( 'NONE', #42, #147, #208 ) ;
#100 = LOCAL_TIME ( 8, 48, 44.00000000000000000, #237 ) ;
#101 = DIRECTION ( 'NONE',  ( 0.000000000000000000, 0.000000000000000000, 1.000000000000000000 ) ) ;
#102 = ADVANCED_FACE ( 'NONE', ( #4 ), #78, .T. ) ;
#103 = EDGE_LOOP ( 'NONE', ( #183, #177, #206, #61 ) ) ;
#104 = DIRECTION ( 'NONE',  ( 1.000000000000000000, 0.000000000000000000, 0.000000000000000000 ) ) ;
#105 = EDGE_LOOP ( 'NONE', ( #141, #62, #5, #225 ) ) ;
#106 = PLANE ( 'NONE',  #221 ) ;
#107 = CC_DESIGN_APPROVAL ( #67, ( #250 ) ) ;
#108 = CARTESIAN_POINT ( 'NONE',  ( 10.00000000000000000, 1.224646799147353256E-15, 315.0000000000000000 ) ) ;
#109 = PRODUCT_RELATED_PRODUCT_CATEGORY ( 'detail', '', ( #178 ) ) ;
#110 = CYLINDRICAL_SURFACE ( 'NONE', #123, 13.00000000000000178 ) ;
#111 = CARTESIAN_POINT ( 'NONE',  ( -13.00000000000000178, 0.000000000000000000, 8.000000000000000000 ) ) ;
#112 = VECTOR ( 'NONE', #69, 1000.000000000000000 ) ;
#113 = DIRECTION ( 'NONE',  ( 0.000000000000000000, 0.000000000000000000, 1.000000000000000000 ) ) ;
#114 = EDGE_CURVE ( 'NONE', #144, #164, #179, .T. ) ;
#115 = PERSON_AND_ORGANIZATION ( #173, #162 ) ;
#116 = CARTESIAN_POINT ( 'NONE',  ( -13.00000000000000178, 0.000000000000000000, 0.000000000000000000 ) ) ;
#117 = PERSON_AND_ORGANIZATION_ROLE ( 'creator' ) ;
#118 = UNCERTAINTY_MEASURE_WITH_UNIT (LENGTH_MEASURE( 1.000000000000000082E-05 ), #32, 'distance_accuracy_value', 'NONE');
#119 = FACE_OUTER_BOUND ( 'NONE', #184, .T. ) ;
#120 = EDGE_CURVE ( 'NONE', #244, #144, #133, .T. ) ;
#121 = COORDINATED_UNIVERSAL_TIME_OFFSET ( 1, 0, .AHEAD. ) ;
#122 = PRODUCT_DEFINITION_SHAPE ( 'NONE', 'NONE',  #250 ) ;
#123 = AXIS2_PLACEMENT_3D ( 'NONE', #66, #86, #49 ) ;
#124 = ORIENTED_EDGE ( 'NONE', *, *, #175, .F. ) ;
#125 = ORIENTED_EDGE ( 'NONE', *, *, #136, .T. ) ;
#126 = ORIENTED_EDGE ( 'NONE', *, *, #223, .T. ) ;
#127 = CIRCLE ( 'NONE', #14, 13.00000000000000178 ) ;
#128 = CC_DESIGN_PERSON_AND_ORGANIZATION_ASSIGNMENT ( #72, #13, ( #250 ) ) ;
#129 = CARTESIAN_POINT ( 'NONE',  ( 0.000000000000000000, 0.000000000000000000, 315.0000000000000000 ) ) ;
#130 = DIRECTION ( 'NONE',  ( 0.000000000000000000, 0.000000000000000000, 1.000000000000000000 ) ) ;
#131 = ADVANCED_FACE ( 'NONE', ( #149, #209 ), #106, .T. ) ;
#132 = AXIS2_PLACEMENT_3D ( 'NONE', #230, #207, #187 ) ;
#133 = LINE ( 'NONE', #166, #246 ) ;
#134 = PERSON_AND_ORGANIZATION_ROLE ( 'design_owner' ) ;
#135 = VECTOR ( 'NONE', #12, 1000.000000000000000 ) ;
#136 = EDGE_CURVE ( 'NONE', #218, #80, #227, .T. ) ;
#137 = APPROVAL_STATUS ( 'not_yet_approved' ) ;
#138 = APPLICATION_PROTOCOL_DEFINITION ( 'international standard', 'config_control_design', 1994, #171 ) ;
#139 = DIRECTION ( 'NONE',  ( 1.000000000000000000, 0.000000000000000000, 0.000000000000000000 ) ) ;
#140 = MECHANICAL_CONTEXT ( 'NONE', #200, 'mechanical' ) ;
#141 = ORIENTED_EDGE ( 'NONE', *, *, #120, .F. ) ;
#142 = APPROVAL_STATUS ( 'not_yet_approved' ) ;
#143 = DIRECTION ( 'NONE',  ( -1.000000000000000000, 0.000000000000000000, 0.000000000000000000 ) ) ;
#144 = VERTEX_POINT ( 'NONE', #228 ) ;
#145 = VERTEX_POINT ( 'NONE', #31 ) ;
#146 = EDGE_CURVE ( 'NONE', #243, #76, #46, .T. ) ;
#147 = DIRECTION ( 'NONE',  ( 0.000000000000000000, 0.000000000000000000, 1.000000000000000000 ) ) ;
#148 = APPROVAL_PERSON_ORGANIZATION ( #16, #38, #98 ) ;
#149 = FACE_BOUND ( 'NONE', #15, .T. ) ;
#150 = ADVANCED_FACE ( 'NONE', ( #87 ), #251, .T. ) ;
#151 = DIRECTION ( 'NONE',  ( 1.000000000000000000, 0.000000000000000000, 0.000000000000000000 ) ) ;
#152 = DIRECTION ( 'NONE',  ( 0.000000000000000000, 0.000000000000000000, 1.000000000000000000 ) ) ;
#153 = LOCAL_TIME ( 8, 48, 44.00000000000000000, #93 ) ;
#154 = CARTESIAN_POINT ( 'NONE',  ( -10.00000000000000000, 0.000000000000000000, 315.0000000000000000 ) ) ;
#155 = PERSON_AND_ORGANIZATION_ROLE ( 'design_supplier' ) ;
#156 =( GEOMETRIC_REPRESENTATION_CONTEXT ( 3 ) GLOBAL_UNCERTAINTY_ASSIGNED_CONTEXT ( ( #118 ) ) GLOBAL_UNIT_ASSIGNED_CONTEXT ( ( #32, #168, #64 ) ) REPRESENTATION_CONTEXT ( 'NONE', 'WORKASPACE' ) );
#157 = DIRECTION ( 'NONE',  ( 1.000000000000000000, 0.000000000000000000, 0.000000000000000000 ) ) ;
#158 = PERSON_AND_ORGANIZATION ( #173, #162 ) ;
#159 = CC_DESIGN_PERSON_AND_ORGANIZATION_ASSIGNMENT ( #196, #117, ( #248 ) ) ;
#160 = ORIENTED_EDGE ( 'NONE', *, *, #210, .T. ) ;
#161 = APPLICATION_PROTOCOL_DEFINITION ( 'international standard', 'config_control_design', 1994, #200 ) ;
#162 = ORGANIZATION ( 'NEURÈENÝ', 'NEURÈENÝ', '' ) ;
#163 = CARTESIAN_POINT ( 'NONE',  ( 13.00000000000000178, 1.592040838891559293E-15, 0.000000000000000000 ) ) ;
#164 = VERTEX_POINT ( 'NONE', #194 ) ;
#165 = CARTESIAN_POINT ( 'NONE',  ( 0.000000000000000000, 0.000000000000000000, 8.000000000000000000 ) ) ;
#166 = CARTESIAN_POINT ( 'NONE',  ( 10.00000000000000000, 1.224646799147353256E-15, 315.0000000000000000 ) ) ;
#167 = CARTESIAN_POINT ( 'NONE',  ( -13.00000000000000178, 0.000000000000000000, 8.000000000000000000 ) ) ;
#168 =( NAMED_UNIT ( * ) PLANE_ANGLE_UNIT ( ) SI_UNIT ( $, .RADIAN. ) );
#169 = DIRECTION ( 'NONE',  ( -0.000000000000000000, -0.000000000000000000, -1.000000000000000000 ) ) ;
#170 = DIRECTION ( 'NONE',  ( 1.000000000000000000, 0.000000000000000000, -0.000000000000000000 ) ) ;
#171 = APPLICATION_CONTEXT ( 'configuration controlled 3d designs of mechanical parts and assemblies' ) ;
#172 = COORDINATED_UNIVERSAL_TIME_OFFSET ( 1, 0, .AHEAD. ) ;
#173 = PERSON ( 'NEURÈENÝ', 'NEURÈENÝ', 'NEURÈENÝ', ('NEURÈENÝ'), ('NEURÈENÝ'), ('NEURÈENÝ') ) ;
#174 = SECURITY_CLASSIFICATION_LEVEL ( 'unclassified' ) ;
#175 = EDGE_CURVE ( 'NONE', #243, #218, #73, .T. ) ;
#176 = DATE_AND_TIME ( #233, #95 ) ;
#177 = ORIENTED_EDGE ( 'NONE', *, *, #120, .T. ) ;
#178 = PRODUCT ( '82ea', '82ea', '', ( #140 ) ) ;
#179 = CIRCLE ( 'NONE', #99, 10.00000000000000000 ) ;
#180 = APPROVAL_PERSON_ORGANIZATION ( #158, #67, #255 ) ;
#181 = ADVANCED_FACE ( 'NONE', ( #50 ), #9, .F. ) ;
#182 = DIRECTION ( 'NONE',  ( 1.000000000000000000, 0.000000000000000000, -0.000000000000000000 ) ) ;
#183 = ORIENTED_EDGE ( 'NONE', *, *, #3, .F. ) ;
#184 = EDGE_LOOP ( 'NONE', ( #160, #252 ) ) ;
#185 = APPROVAL_PERSON_ORGANIZATION ( #51, #77, #92 ) ;
#186 = DIRECTION ( 'NONE',  ( 0.000000000000000000, 0.000000000000000000, 1.000000000000000000 ) ) ;
#187 = DIRECTION ( 'NONE',  ( -1.000000000000000000, 0.000000000000000000, 0.000000000000000000 ) ) ;
#188 = DIRECTION ( 'NONE',  ( 0.000000000000000000, 0.000000000000000000, 1.000000000000000000 ) ) ;
#189 = SECURITY_CLASSIFICATION ( '', '', #174 ) ;
#190 = CARTESIAN_POINT ( 'NONE',  ( 13.00000000000000178, 1.592040838891559293E-15, 8.000000000000000000 ) ) ;
#191 = CARTESIAN_POINT ( 'NONE',  ( 0.000000000000000000, 0.000000000000000000, 8.000000000000000000 ) ) ;
#192 = AXIS2_PLACEMENT_3D ( 'NONE', #236, #55, #139 ) ;
#193 = CC_DESIGN_PERSON_AND_ORGANIZATION_ASSIGNMENT ( #235, #155, ( #248 ) ) ;
#194 = CARTESIAN_POINT ( 'NONE',  ( -10.00000000000000000, 0.000000000000000000, 8.000000000000000000 ) ) ;
#195 = CALENDAR_DATE ( 2023, 13, 2 ) ;
#196 = PERSON_AND_ORGANIZATION ( #173, #162 ) ;
#197 = DESIGN_CONTEXT ( 'detailed design', #171, 'design' ) ;
#198 = FACE_OUTER_BOUND ( 'NONE', #103, .T. ) ;
#199 = PLANE ( 'NONE',  #226 ) ;
#200 = APPLICATION_CONTEXT ( 'configuration controlled 3d designs of mechanical parts and assemblies' ) ;
#201 = EDGE_CURVE ( 'NONE', #145, #164, #71, .T. ) ;
#202 = CC_DESIGN_SECURITY_CLASSIFICATION ( #189, ( #248 ) ) ;
#203 = ORIENTED_EDGE ( 'NONE', *, *, #175, .T. ) ;
#204 = EDGE_LOOP ( 'NONE', ( #28, #216, #125, #222 ) ) ;
#205 = CIRCLE ( 'NONE', #240, 10.00000000000000000 ) ;
#206 = ORIENTED_EDGE ( 'NONE', *, *, #114, .T. ) ;
#207 = DIRECTION ( 'NONE',  ( -0.000000000000000000, -0.000000000000000000, -1.000000000000000000 ) ) ;
#208 = DIRECTION ( 'NONE',  ( 1.000000000000000000, 0.000000000000000000, 0.000000000000000000 ) ) ;
#209 = FACE_OUTER_BOUND ( 'NONE', #7, .T. ) ;
#210 = EDGE_CURVE ( 'NONE', #145, #244, #34, .T. ) ;
#211 = DIRECTION ( 'NONE',  ( 0.000000000000000000, 0.000000000000000000, 1.000000000000000000 ) ) ;
#212 = AXIS2_PLACEMENT_3D ( 'NONE', #242, #60, #143 ) ;
#213 = PERSON_AND_ORGANIZATION ( #173, #162 ) ;
#214 = DATE_AND_TIME ( #59, #75 ) ;
#215 = CALENDAR_DATE ( 2023, 13, 2 ) ;
#216 = ORIENTED_EDGE ( 'NONE', *, *, #223, .F. ) ;
#217 = APPROVAL_STATUS ( 'not_yet_approved' ) ;
#218 = VERTEX_POINT ( 'NONE', #167 ) ;
#219 = DATE_TIME_ROLE ( 'creation_date' ) ;
#220 = ADVANCED_FACE ( 'NONE', ( #247 ), #110, .T. ) ;
#221 = AXIS2_PLACEMENT_3D ( 'NONE', #29, #152, #170 ) ;
#222 = ORIENTED_EDGE ( 'NONE', *, *, #231, .T. ) ;
#223 = EDGE_CURVE ( 'NONE', #218, #243, #234, .T. ) ;
#224 = ORIENTED_EDGE ( 'NONE', *, *, #136, .F. ) ;
#225 = ORIENTED_EDGE ( 'NONE', *, *, #8, .T. ) ;
#226 = AXIS2_PLACEMENT_3D ( 'NONE', #25, #101, #182 ) ;
#227 = LINE ( 'NONE', #111, #135 ) ;
#228 = CARTESIAN_POINT ( 'NONE',  ( 10.00000000000000000, 1.224646799147353256E-15, 8.000000000000000000 ) ) ;
#229 = DIRECTION ( 'NONE',  ( 0.000000000000000000, 0.000000000000000000, 1.000000000000000000 ) ) ;
#230 = CARTESIAN_POINT ( 'NONE',  ( 0.000000000000000000, 0.000000000000000000, 8.000000000000000000 ) ) ;
#231 = EDGE_CURVE ( 'NONE', #80, #76, #127, .T. ) ;
#232 = CARTESIAN_POINT ( 'NONE',  ( 0.000000000000000000, 0.000000000000000000, 0.000000000000000000 ) ) ;
#233 = CALENDAR_DATE ( 2023, 13, 2 ) ;
#234 = CIRCLE ( 'NONE', #85, 13.00000000000000178 ) ;
#235 = PERSON_AND_ORGANIZATION ( #173, #162 ) ;
#236 = CARTESIAN_POINT ( 'NONE',  ( 0.000000000000000000, 0.000000000000000000, 0.000000000000000000 ) ) ;
#237 = COORDINATED_UNIVERSAL_TIME_OFFSET ( 1, 0, .AHEAD. ) ;
#238 = ORIENTED_EDGE ( 'NONE', *, *, #146, .T. ) ;
#239 = DATE_AND_TIME ( #195, #100 ) ;
#240 = AXIS2_PLACEMENT_3D ( 'NONE', #165, #186, #157 ) ;
#241 = AXIS2_PLACEMENT_3D ( 'NONE', #89, #253, #81 ) ;
#242 = CARTESIAN_POINT ( 'NONE',  ( 0.000000000000000000, 0.000000000000000000, 315.0000000000000000 ) ) ;
#243 = VERTEX_POINT ( 'NONE', #190 ) ;
#244 = VERTEX_POINT ( 'NONE', #108 ) ;
#245 = CARTESIAN_POINT ( 'NONE',  ( 0.000000000000000000, 0.000000000000000000, 0.000000000000000000 ) ) ;
#246 = VECTOR ( 'NONE', #169, 1000.000000000000000 ) ;
#247 = FACE_OUTER_BOUND ( 'NONE', #204, .T. ) ;
#248 = PRODUCT_DEFINITION_FORMATION_WITH_SPECIFIED_SOURCE ( 'LIBOVOLNÝ', '', #178, .NOT_KNOWN. ) ;
#249 = CARTESIAN_POINT ( 'NONE',  ( 13.00000000000000178, 1.592040838891559293E-15, 8.000000000000000000 ) ) ;
#250 = PRODUCT_DEFINITION ( 'NEZNÁMÝ', '', #248, #197 ) ;
#251 = CYLINDRICAL_SURFACE ( 'NONE', #132, 13.00000000000000178 ) ;
#252 = ORIENTED_EDGE ( 'NONE', *, *, #3, .T. ) ;
#253 = DIRECTION ( 'NONE',  ( 0.000000000000000000, 0.000000000000000000, 1.000000000000000000 ) ) ;
#254 = CALENDAR_DATE ( 2023, 13, 2 ) ;
#255 = APPROVAL_ROLE ( '' ) ;
ENDSEC;
END-ISO-10303-21;
