ISO-10303-21;
HEADER;
FILE_DESCRIPTION (( 'STEP AP203' ),
    '1' );
FILE_NAME ('4211.STEP',
    '2023-02-13T07:48:32',
    ( '' ),
    ( '' ),
    'SwSTEP 2.0',
    'SolidWorks 2019',
    '' );
FILE_SCHEMA (( 'CONFIG_CONTROL_DESIGN' ));
ENDSEC;

DATA;
#1 = PERSON_AND_ORGANIZATION ( #180, #78 ) ;
#2 = EDGE_CURVE ( 'NONE', #53, #201, #51, .T. ) ;
#3 = SECURITY_CLASSIFICATION_LEVEL ( 'unclassified' ) ;
#4 = PRODUCT_DEFINITION_FORMATION_WITH_SPECIFIED_SOURCE ( 'LIBOVOLNÝ', '', #58, .NOT_KNOWN. ) ;
#5 = ORIENTED_EDGE ( 'NONE', *, *, #159, .T. ) ;
#6 = ORIENTED_EDGE ( 'NONE', *, *, #13, .T. ) ;
#7 = ORIENTED_EDGE ( 'NONE', *, *, #40, .F. ) ;
#8 = DIRECTION ( 'NONE',  ( 1.000000000000000000, 0.000000000000000000, 0.000000000000000000 ) ) ;
#9 = FACE_BOUND ( 'NONE', #127, .T. ) ;
#10 = EDGE_LOOP ( 'NONE', ( #230, #184 ) ) ;
#11 = DIRECTION ( 'NONE',  ( 1.000000000000000000, 0.000000000000000000, 0.000000000000000000 ) ) ;
#12 = LINE ( 'NONE', #156, #56 ) ;
#13 = EDGE_CURVE ( 'NONE', #223, #150, #251, .T. ) ;
#14 = EDGE_LOOP ( 'NONE', ( #167, #5, #181, #35 ) ) ;
#15 = APPROVAL ( #182, 'NEURÈENÝ' ) ;
#16 = DIRECTION ( 'NONE',  ( 1.000000000000000000, 0.000000000000000000, 0.000000000000000000 ) ) ;
#17 = PERSON_AND_ORGANIZATION ( #180, #78 ) ;
#18 = DIRECTION ( 'NONE',  ( 1.000000000000000000, 0.000000000000000000, 0.000000000000000000 ) ) ;
#19 = AXIS2_PLACEMENT_3D ( 'NONE', #68, #225, #191 ) ;
#20 = PERSON_AND_ORGANIZATION ( #180, #78 ) ;
#21 = EDGE_LOOP ( 'NONE', ( #95, #234 ) ) ;
#22 = CYLINDRICAL_SURFACE ( 'NONE', #97, 13.00000000000000178 ) ;
#23 = LOCAL_TIME ( 8, 48, 32.00000000000000000, #217 ) ;
#24 = CIRCLE ( 'NONE', #114, 10.00000000000000000 ) ;
#25 = CARTESIAN_POINT ( 'NONE',  ( 0.000000000000000000, 0.000000000000000000, 8.000000000000000000 ) ) ;
#26 = ADVANCED_FACE ( 'NONE', ( #27 ), #158, .T. ) ;
#27 = FACE_OUTER_BOUND ( 'NONE', #148, .T. ) ;
#28 = CARTESIAN_POINT ( 'NONE',  ( 0.000000000000000000, 0.000000000000000000, 8.000000000000000000 ) ) ;
#29 = APPLICATION_PROTOCOL_DEFINITION ( 'international standard', 'config_control_design', 1994, #153 ) ;
#30 = CARTESIAN_POINT ( 'NONE',  ( 0.000000000000000000, 0.000000000000000000, 8.000000000000000000 ) ) ;
#31 = ADVANCED_FACE ( 'NONE', ( #154 ), #233, .T. ) ;
#32 = DIRECTION ( 'NONE',  ( -0.000000000000000000, -0.000000000000000000, -1.000000000000000000 ) ) ;
#33 = COORDINATED_UNIVERSAL_TIME_OFFSET ( 1, 0, .AHEAD. ) ;
#34 = DIRECTION ( 'NONE',  ( -1.000000000000000000, 0.000000000000000000, 0.000000000000000000 ) ) ;
#35 = ORIENTED_EDGE ( 'NONE', *, *, #13, .F. ) ;
#36 = CARTESIAN_POINT ( 'NONE',  ( 0.000000000000000000, 0.000000000000000000, 0.000000000000000000 ) ) ;
#37 = AXIS2_PLACEMENT_3D ( 'NONE', #117, #42, #115 ) ;
#38 = DIRECTION ( 'NONE',  ( -0.000000000000000000, -0.000000000000000000, -1.000000000000000000 ) ) ;
#39 = CC_DESIGN_DATE_AND_TIME_ASSIGNMENT ( #220, #63, ( #77 ) ) ;
#40 = EDGE_CURVE ( 'NONE', #223, #144, #100, .T. ) ;
#41 = DATE_AND_TIME ( #214, #46 ) ;
#42 = DIRECTION ( 'NONE',  ( 0.000000000000000000, 0.000000000000000000, 1.000000000000000000 ) ) ;
#43 = DIRECTION ( 'NONE',  ( 0.000000000000000000, 0.000000000000000000, 1.000000000000000000 ) ) ;
#44 = PERSON_AND_ORGANIZATION_ROLE ( 'creator' ) ;
#45 = ORIENTED_EDGE ( 'NONE', *, *, #86, .T. ) ;
#46 = LOCAL_TIME ( 8, 48, 32.00000000000000000, #139 ) ;
#47 = CARTESIAN_POINT ( 'NONE',  ( 0.000000000000000000, 0.000000000000000000, 0.000000000000000000 ) ) ;
#48 = CC_DESIGN_PERSON_AND_ORGANIZATION_ASSIGNMENT ( #178, #254, ( #4 ) ) ;
#49 = CARTESIAN_POINT ( 'NONE',  ( 10.00000000000000000, 1.224646799147353256E-15, 8.000000000000000000 ) ) ;
#50 = CYLINDRICAL_SURFACE ( 'NONE', #106, 10.00000000000000000 ) ;
#51 = CIRCLE ( 'NONE', #224, 10.00000000000000000 ) ;
#52 = PERSON_AND_ORGANIZATION_ROLE ( 'design_owner' ) ;
#53 = VERTEX_POINT ( 'NONE', #112 ) ;
#54 = VERTEX_POINT ( 'NONE', #231 ) ;
#55 = CARTESIAN_POINT ( 'NONE',  ( 0.000000000000000000, 0.000000000000000000, 400.0000000000000000 ) ) ;
#56 = VECTOR ( 'NONE', #235, 1000.000000000000000 ) ;
#57 = CARTESIAN_POINT ( 'NONE',  ( -13.00000000000000178, 0.000000000000000000, 8.000000000000000000 ) ) ;
#58 = PRODUCT ( '4211', '4211', '', ( #125 ) ) ;
#59 = CARTESIAN_POINT ( 'NONE',  ( 13.00000000000000178, 1.592040838891559293E-15, 0.000000000000000000 ) ) ;
#60 = DIRECTION ( 'NONE',  ( -0.000000000000000000, -0.000000000000000000, -1.000000000000000000 ) ) ;
#61 = APPROVAL_PERSON_ORGANIZATION ( #17, #248, #87 ) ;
#62 = DIRECTION ( 'NONE',  ( 0.000000000000000000, 0.000000000000000000, 1.000000000000000000 ) ) ;
#63 = DATE_TIME_ROLE ( 'creation_date' ) ;
#64 = APPROVAL_DATE_TIME ( #240, #248 ) ;
#65 = LOCAL_TIME ( 8, 48, 32.00000000000000000, #33 ) ;
#66 = CARTESIAN_POINT ( 'NONE',  ( -13.00000000000000178, 0.000000000000000000, 8.000000000000000000 ) ) ;
#67 = APPLICATION_PROTOCOL_DEFINITION ( 'international standard', 'config_control_design', 1994, #122 ) ;
#68 = CARTESIAN_POINT ( 'NONE',  ( 0.000000000000000000, 0.000000000000000000, 8.000000000000000000 ) ) ;
#69 = AXIS2_PLACEMENT_3D ( 'NONE', #55, #186, #204 ) ;
#70 =( NAMED_UNIT ( * ) PLANE_ANGLE_UNIT ( ) SI_UNIT ( $, .RADIAN. ) );
#71 = EDGE_LOOP ( 'NONE', ( #129, #243 ) ) ;
#72 = ORIENTED_EDGE ( 'NONE', *, *, #196, .T. ) ;
#73 = DIRECTION ( 'NONE',  ( -1.000000000000000000, 0.000000000000000000, 0.000000000000000000 ) ) ;
#74 = EDGE_LOOP ( 'NONE', ( #232, #107, #205, #206 ) ) ;
#75 = CARTESIAN_POINT ( 'NONE',  ( 13.00000000000000178, 1.592040838891559293E-15, 8.000000000000000000 ) ) ;
#76 = AXIS2_PLACEMENT_3D ( 'NONE', #47, #221, #85 ) ;
#77 = PRODUCT_DEFINITION ( 'NEZNÁMÝ', '', #4, #83 ) ;
#78 = ORGANIZATION ( 'NEURÈENÝ', 'NEURÈENÝ', '' ) ;
#79 = DIRECTION ( 'NONE',  ( 1.000000000000000000, 0.000000000000000000, 0.000000000000000000 ) ) ;
#80 = CARTESIAN_POINT ( 'NONE',  ( 0.000000000000000000, 0.000000000000000000, 400.0000000000000000 ) ) ;
#81 = FACE_OUTER_BOUND ( 'NONE', #71, .T. ) ;
#82 = CIRCLE ( 'NONE', #101, 13.00000000000000178 ) ;
#83 = DESIGN_CONTEXT ( 'detailed design', #153, 'design' ) ;
#84 = APPROVAL_ROLE ( '' ) ;
#85 = DIRECTION ( 'NONE',  ( 1.000000000000000000, 0.000000000000000000, -0.000000000000000000 ) ) ;
#86 = EDGE_CURVE ( 'NONE', #53, #54, #190, .T. ) ;
#87 = APPROVAL_ROLE ( '' ) ;
#88 = COORDINATED_UNIVERSAL_TIME_OFFSET ( 1, 0, .AHEAD. ) ;
#89 = DIRECTION ( 'NONE',  ( -0.000000000000000000, -0.000000000000000000, -1.000000000000000000 ) ) ;
#90 = VECTOR ( 'NONE', #32, 1000.000000000000000 ) ;
#91 = APPROVAL ( #229, 'NEURÈENÝ' ) ;
#92 = PERSON_AND_ORGANIZATION ( #180, #78 ) ;
#93 = EDGE_CURVE ( 'NONE', #201, #133, #12, .T. ) ;
#94 = CARTESIAN_POINT ( 'NONE',  ( 10.00000000000000000, 1.224646799147353256E-15, 400.0000000000000000 ) ) ;
#95 = ORIENTED_EDGE ( 'NONE', *, *, #40, .T. ) ;
#96 = DATE_AND_TIME ( #164, #105 ) ;
#97 = AXIS2_PLACEMENT_3D ( 'NONE', #28, #89, #73 ) ;
#98 = APPROVAL_STATUS ( 'not_yet_approved' ) ;
#99 = VERTEX_POINT ( 'NONE', #59 ) ;
#100 = CIRCLE ( 'NONE', #198, 13.00000000000000178 ) ;
#101 = AXIS2_PLACEMENT_3D ( 'NONE', #149, #200, #11 ) ;
#102 = ORIENTED_EDGE ( 'NONE', *, *, #183, .F. ) ;
#103 = EDGE_CURVE ( 'NONE', #150, #99, #237, .T. ) ;
#104 = FACE_OUTER_BOUND ( 'NONE', #74, .T. ) ;
#105 = LOCAL_TIME ( 8, 48, 32.00000000000000000, #195 ) ;
#106 = AXIS2_PLACEMENT_3D ( 'NONE', #202, #130, #109 ) ;
#107 = ORIENTED_EDGE ( 'NONE', *, *, #93, .T. ) ;
#108 = DIRECTION ( 'NONE',  ( 0.000000000000000000, 0.000000000000000000, 1.000000000000000000 ) ) ;
#109 = DIRECTION ( 'NONE',  ( -1.000000000000000000, 0.000000000000000000, 0.000000000000000000 ) ) ;
#110 = VECTOR ( 'NONE', #60, 1000.000000000000000 ) ;
#111 = DATE_AND_TIME ( #113, #65 ) ;
#112 = CARTESIAN_POINT ( 'NONE',  ( -10.00000000000000000, 0.000000000000000000, 400.0000000000000000 ) ) ;
#113 = CALENDAR_DATE ( 2023, 13, 2 ) ;
#114 = AXIS2_PLACEMENT_3D ( 'NONE', #25, #108, #8 ) ;
#115 = DIRECTION ( 'NONE',  ( 1.000000000000000000, 0.000000000000000000, -0.000000000000000000 ) ) ;
#116 = CIRCLE ( 'NONE', #169, 13.00000000000000178 ) ;
#117 = CARTESIAN_POINT ( 'NONE',  ( 0.000000000000000000, 0.000000000000000000, 400.0000000000000000 ) ) ;
#118 = DIRECTION ( 'NONE',  ( -1.000000000000000000, 0.000000000000000000, 0.000000000000000000 ) ) ;
#119 = DATE_TIME_ROLE ( 'classification_date' ) ;
#120 = DIRECTION ( 'NONE',  ( 1.000000000000000000, 0.000000000000000000, 0.000000000000000000 ) ) ;
#121 = APPROVAL_DATE_TIME ( #96, #15 ) ;
#122 = APPLICATION_CONTEXT ( 'configuration controlled 3d designs of mechanical parts and assemblies' ) ;
#123 =( LENGTH_UNIT ( ) NAMED_UNIT ( * ) SI_UNIT ( .MILLI., .METRE. ) );
#124 = DIRECTION ( 'NONE',  ( -0.000000000000000000, -0.000000000000000000, -1.000000000000000000 ) ) ;
#125 = MECHANICAL_CONTEXT ( 'NONE', #122, 'mechanical' ) ;
#126 = CARTESIAN_POINT ( 'NONE',  ( -13.00000000000000178, 0.000000000000000000, 0.000000000000000000 ) ) ;
#127 = EDGE_LOOP ( 'NONE', ( #146, #102 ) ) ;
#128 = CC_DESIGN_APPROVAL ( #248, ( #142 ) ) ;
#129 = ORIENTED_EDGE ( 'NONE', *, *, #2, .T. ) ;
#130 = DIRECTION ( 'NONE',  ( -0.000000000000000000, -0.000000000000000000, -1.000000000000000000 ) ) ;
#131 = APPROVAL_ROLE ( '' ) ;
#132 = ADVANCED_BREP_SHAPE_REPRESENTATION ( '4211', ( #138, #199 ), #246 ) ;
#133 = VERTEX_POINT ( 'NONE', #49 ) ;
#134 = EDGE_CURVE ( 'NONE', #201, #53, #145, .T. ) ;
#135 = CARTESIAN_POINT ( 'NONE',  ( 0.000000000000000000, 0.000000000000000000, 8.000000000000000000 ) ) ;
#136 = CIRCLE ( 'NONE', #19, 10.00000000000000000 ) ;
#137 = APPROVAL_PERSON_ORGANIZATION ( #20, #15, #84 ) ;
#138 = MANIFOLD_SOLID_BREP ( 'Pøidat vysunutím3', #162 ) ;
#139 = COORDINATED_UNIVERSAL_TIME_OFFSET ( 1, 0, .AHEAD. ) ;
#140 = PERSON_AND_ORGANIZATION_ROLE ( 'design_supplier' ) ;
#141 = CARTESIAN_POINT ( 'NONE',  ( 0.000000000000000000, 0.000000000000000000, 0.000000000000000000 ) ) ;
#142 = SECURITY_CLASSIFICATION ( '', '', #3 ) ;
#143 = PLANE ( 'NONE',  #76 ) ;
#144 = VERTEX_POINT ( 'NONE', #170 ) ;
#145 = CIRCLE ( 'NONE', #69, 10.00000000000000000 ) ;
#146 = ORIENTED_EDGE ( 'NONE', *, *, #196, .F. ) ;
#147 = PERSON_AND_ORGANIZATION ( #180, #78 ) ;
#148 = EDGE_LOOP ( 'NONE', ( #211, #245, #45, #72 ) ) ;
#149 = CARTESIAN_POINT ( 'NONE',  ( 0.000000000000000000, 0.000000000000000000, 8.000000000000000000 ) ) ;
#150 = VERTEX_POINT ( 'NONE', #126 ) ;
#151 = FACE_OUTER_BOUND ( 'NONE', #21, .T. ) ;
#152 = ORIENTED_EDGE ( 'NONE', *, *, #159, .F. ) ;
#153 = APPLICATION_CONTEXT ( 'configuration controlled 3d designs of mechanical parts and assemblies' ) ;
#154 = FACE_OUTER_BOUND ( 'NONE', #14, .T. ) ;
#155 = ADVANCED_FACE ( 'NONE', ( #168 ), #22, .T. ) ;
#156 = CARTESIAN_POINT ( 'NONE',  ( 10.00000000000000000, 1.224646799147353256E-15, 400.0000000000000000 ) ) ;
#157 = AXIS2_PLACEMENT_3D ( 'NONE', #36, #192, #18 ) ;
#158 = CYLINDRICAL_SURFACE ( 'NONE', #227, 10.00000000000000000 ) ;
#159 = EDGE_CURVE ( 'NONE', #144, #99, #247, .T. ) ;
#160 = EDGE_CURVE ( 'NONE', #144, #223, #82, .T. ) ;
#161 = CALENDAR_DATE ( 2023, 13, 2 ) ;
#162 = CLOSED_SHELL ( 'NONE', ( #175, #31, #155, #189, #244, #26, #219 ) ) ;
#163 = CC_DESIGN_PERSON_AND_ORGANIZATION_ASSIGNMENT ( #1, #140, ( #4 ) ) ;
#164 = CALENDAR_DATE ( 2023, 13, 2 ) ;
#165 = FACE_OUTER_BOUND ( 'NONE', #10, .T. ) ;
#166 = CC_DESIGN_PERSON_AND_ORGANIZATION_ASSIGNMENT ( #147, #52, ( #58 ) ) ;
#167 = ORIENTED_EDGE ( 'NONE', *, *, #160, .F. ) ;
#168 = FACE_OUTER_BOUND ( 'NONE', #226, .T. ) ;
#169 = AXIS2_PLACEMENT_3D ( 'NONE', #194, #62, #218 ) ;
#170 = CARTESIAN_POINT ( 'NONE',  ( 13.00000000000000178, 1.592040838891559293E-15, 8.000000000000000000 ) ) ;
#171 = LOCAL_TIME ( 8, 48, 32.00000000000000000, #88 ) ;
#172 = AXIS2_PLACEMENT_3D ( 'NONE', #30, #187, #242 ) ;
#173 = CC_DESIGN_PERSON_AND_ORGANIZATION_ASSIGNMENT ( #92, #44, ( #77 ) ) ;
#174 = PERSON_AND_ORGANIZATION ( #180, #78 ) ;
#175 = ADVANCED_FACE ( 'NONE', ( #104 ), #50, .T. ) ;
#176 = CC_DESIGN_SECURITY_CLASSIFICATION ( #142, ( #4 ) ) ;
#177 = UNCERTAINTY_MEASURE_WITH_UNIT (LENGTH_MEASURE( 1.000000000000000082E-05 ), #123, 'distance_accuracy_value', 'NONE');
#178 = PERSON_AND_ORGANIZATION ( #180, #78 ) ;
#179 = PERSON_AND_ORGANIZATION_ROLE ( 'classification_officer' ) ;
#180 = PERSON ( 'NEURÈENÝ', 'NEURÈENÝ', 'NEURÈENÝ', ('NEURÈENÝ'), ('NEURÈENÝ'), ('NEURÈENÝ') ) ;
#181 = ORIENTED_EDGE ( 'NONE', *, *, #222, .T. ) ;
#182 = APPROVAL_STATUS ( 'not_yet_approved' ) ;
#183 = EDGE_CURVE ( 'NONE', #133, #54, #24, .T. ) ;
#184 = ORIENTED_EDGE ( 'NONE', *, *, #222, .F. ) ;
#185 = AXIS2_PLACEMENT_3D ( 'NONE', #207, #210, #34 ) ;
#186 = DIRECTION ( 'NONE',  ( 0.000000000000000000, 0.000000000000000000, 1.000000000000000000 ) ) ;
#187 = DIRECTION ( 'NONE',  ( 0.000000000000000000, 0.000000000000000000, 1.000000000000000000 ) ) ;
#188 = APPROVAL_DATE_TIME ( #111, #91 ) ;
#189 = ADVANCED_FACE ( 'NONE', ( #9, #151 ), #228, .T. ) ;
#190 = LINE ( 'NONE', #213, #90 ) ;
#191 = DIRECTION ( 'NONE',  ( 1.000000000000000000, 0.000000000000000000, 0.000000000000000000 ) ) ;
#192 = DIRECTION ( 'NONE',  ( 0.000000000000000000, 0.000000000000000000, 1.000000000000000000 ) ) ;
#193 = CC_DESIGN_APPROVAL ( #91, ( #77 ) ) ;
#194 = CARTESIAN_POINT ( 'NONE',  ( 0.000000000000000000, 0.000000000000000000, 0.000000000000000000 ) ) ;
#195 = COORDINATED_UNIVERSAL_TIME_OFFSET ( 1, 0, .AHEAD. ) ;
#196 = EDGE_CURVE ( 'NONE', #54, #133, #136, .T. ) ;
#197 =( NAMED_UNIT ( * ) SI_UNIT ( $, .STERADIAN. ) SOLID_ANGLE_UNIT ( ) );
#198 = AXIS2_PLACEMENT_3D ( 'NONE', #135, #250, #16 ) ;
#199 = AXIS2_PLACEMENT_3D ( 'NONE', #141, #43, #120 ) ;
#200 = DIRECTION ( 'NONE',  ( 0.000000000000000000, 0.000000000000000000, 1.000000000000000000 ) ) ;
#201 = VERTEX_POINT ( 'NONE', #94 ) ;
#202 = CARTESIAN_POINT ( 'NONE',  ( 0.000000000000000000, 0.000000000000000000, 400.0000000000000000 ) ) ;
#203 = ORIENTED_EDGE ( 'NONE', *, *, #103, .T. ) ;
#204 = DIRECTION ( 'NONE',  ( 1.000000000000000000, 0.000000000000000000, 0.000000000000000000 ) ) ;
#205 = ORIENTED_EDGE ( 'NONE', *, *, #183, .T. ) ;
#206 = ORIENTED_EDGE ( 'NONE', *, *, #86, .F. ) ;
#207 = CARTESIAN_POINT ( 'NONE',  ( 0.000000000000000000, 0.000000000000000000, 8.000000000000000000 ) ) ;
#208 = VECTOR ( 'NONE', #124, 1000.000000000000000 ) ;
#209 = CC_DESIGN_DATE_AND_TIME_ASSIGNMENT ( #41, #119, ( #142 ) ) ;
#210 = DIRECTION ( 'NONE',  ( -0.000000000000000000, -0.000000000000000000, -1.000000000000000000 ) ) ;
#211 = ORIENTED_EDGE ( 'NONE', *, *, #93, .F. ) ;
#212 = PRODUCT_DEFINITION_SHAPE ( 'NONE', 'NONE',  #77 ) ;
#213 = CARTESIAN_POINT ( 'NONE',  ( -10.00000000000000000, 0.000000000000000000, 400.0000000000000000 ) ) ;
#214 = CALENDAR_DATE ( 2023, 13, 2 ) ;
#215 = SHAPE_DEFINITION_REPRESENTATION ( #212, #132 ) ;
#216 = APPROVAL_PERSON_ORGANIZATION ( #174, #91, #131 ) ;
#217 = COORDINATED_UNIVERSAL_TIME_OFFSET ( 1, 0, .AHEAD. ) ;
#218 = DIRECTION ( 'NONE',  ( 1.000000000000000000, 0.000000000000000000, 0.000000000000000000 ) ) ;
#219 = ADVANCED_FACE ( 'NONE', ( #81 ), #236, .T. ) ;
#220 = DATE_AND_TIME ( #241, #171 ) ;
#221 = DIRECTION ( 'NONE',  ( 0.000000000000000000, 0.000000000000000000, 1.000000000000000000 ) ) ;
#222 = EDGE_CURVE ( 'NONE', #99, #150, #116, .T. ) ;
#223 = VERTEX_POINT ( 'NONE', #66 ) ;
#224 = AXIS2_PLACEMENT_3D ( 'NONE', #253, #249, #79 ) ;
#225 = DIRECTION ( 'NONE',  ( 0.000000000000000000, 0.000000000000000000, 1.000000000000000000 ) ) ;
#226 = EDGE_LOOP ( 'NONE', ( #152, #7, #6, #203 ) ) ;
#227 = AXIS2_PLACEMENT_3D ( 'NONE', #80, #38, #118 ) ;
#228 = PLANE ( 'NONE',  #172 ) ;
#229 = APPROVAL_STATUS ( 'not_yet_approved' ) ;
#230 = ORIENTED_EDGE ( 'NONE', *, *, #103, .F. ) ;
#231 = CARTESIAN_POINT ( 'NONE',  ( -10.00000000000000000, 0.000000000000000000, 8.000000000000000000 ) ) ;
#232 = ORIENTED_EDGE ( 'NONE', *, *, #134, .F. ) ;
#233 = CYLINDRICAL_SURFACE ( 'NONE', #185, 13.00000000000000178 ) ;
#234 = ORIENTED_EDGE ( 'NONE', *, *, #160, .T. ) ;
#235 = DIRECTION ( 'NONE',  ( -0.000000000000000000, -0.000000000000000000, -1.000000000000000000 ) ) ;
#236 = PLANE ( 'NONE',  #37 ) ;
#237 = CIRCLE ( 'NONE', #157, 13.00000000000000178 ) ;
#238 = PERSON_AND_ORGANIZATION ( #180, #78 ) ;
#239 = PRODUCT_RELATED_PRODUCT_CATEGORY ( 'detail', '', ( #58 ) ) ;
#240 = DATE_AND_TIME ( #161, #23 ) ;
#241 = CALENDAR_DATE ( 2023, 13, 2 ) ;
#242 = DIRECTION ( 'NONE',  ( 1.000000000000000000, 0.000000000000000000, -0.000000000000000000 ) ) ;
#243 = ORIENTED_EDGE ( 'NONE', *, *, #134, .T. ) ;
#244 = ADVANCED_FACE ( 'NONE', ( #165 ), #143, .F. ) ;
#245 = ORIENTED_EDGE ( 'NONE', *, *, #2, .F. ) ;
#246 =( GEOMETRIC_REPRESENTATION_CONTEXT ( 3 ) GLOBAL_UNCERTAINTY_ASSIGNED_CONTEXT ( ( #177 ) ) GLOBAL_UNIT_ASSIGNED_CONTEXT ( ( #123, #70, #197 ) ) REPRESENTATION_CONTEXT ( 'NONE', 'WORKASPACE' ) );
#247 = LINE ( 'NONE', #75, #208 ) ;
#248 = APPROVAL ( #98, 'NEURÈENÝ' ) ;
#249 = DIRECTION ( 'NONE',  ( 0.000000000000000000, 0.000000000000000000, 1.000000000000000000 ) ) ;
#250 = DIRECTION ( 'NONE',  ( 0.000000000000000000, 0.000000000000000000, 1.000000000000000000 ) ) ;
#251 = LINE ( 'NONE', #57, #110 ) ;
#252 = CC_DESIGN_APPROVAL ( #15, ( #4 ) ) ;
#253 = CARTESIAN_POINT ( 'NONE',  ( 0.000000000000000000, 0.000000000000000000, 400.0000000000000000 ) ) ;
#254 = PERSON_AND_ORGANIZATION_ROLE ( 'creator' ) ;
#255 = CC_DESIGN_PERSON_AND_ORGANIZATION_ASSIGNMENT ( #238, #179, ( #142 ) ) ;
ENDSEC;
END-ISO-10303-21;
