ISO-10303-21;
HEADER;
FILE_DESCRIPTION (( 'STEP AP203' ),
    '1' );
FILE_NAME ('d497.STEP',
    '2023-02-13T07:46:56',
    ( '' ),
    ( '' ),
    'SwSTEP 2.0',
    'SolidWorks 2019',
    '' );
FILE_SCHEMA (( 'CONFIG_CONTROL_DESIGN' ));
ENDSEC;

DATA;
#1 =( GEOMETRIC_REPRESENTATION_CONTEXT ( 3 ) GLOBAL_UNCERTAINTY_ASSIGNED_CONTEXT ( ( #108 ) ) GLOBAL_UNIT_ASSIGNED_CONTEXT ( ( #16, #248, #109 ) ) REPRESENTATION_CONTEXT ( 'NONE', 'WORKASPACE' ) );
#2 = PERSON_AND_ORGANIZATION_ROLE ( 'creator' ) ;
#3 = PERSON_AND_ORGANIZATION_ROLE ( 'design_owner' ) ;
#4 = EDGE_CURVE ( 'NONE', #170, #11, #31, .T. ) ;
#5 = CIRCLE ( 'NONE', #27, 20.00000000000000000 ) ;
#6 = PERSON_AND_ORGANIZATION ( #123, #150 ) ;
#7 = EDGE_CURVE ( 'NONE', #243, #170, #161, .T. ) ;
#8 = CALENDAR_DATE ( 2023, 13, 2 ) ;
#9 = CC_DESIGN_APPROVAL ( #216, ( #151 ) ) ;
#10 = ORIENTED_EDGE ( 'NONE', *, *, #55, .F. ) ;
#11 = VERTEX_POINT ( 'NONE', #183 ) ;
#12 = ORIENTED_EDGE ( 'NONE', *, *, #140, .T. ) ;
#13 = DIRECTION ( 'NONE',  ( -0.000000000000000000, -0.000000000000000000, -1.000000000000000000 ) ) ;
#14 = ORIENTED_EDGE ( 'NONE', *, *, #55, .T. ) ;
#15 = AXIS2_PLACEMENT_3D ( 'NONE', #173, #114, #160 ) ;
#16 =( LENGTH_UNIT ( ) NAMED_UNIT ( * ) SI_UNIT ( .MILLI., .METRE. ) );
#17 = ORIENTED_EDGE ( 'NONE', *, *, #7, .F. ) ;
#18 = DESIGN_CONTEXT ( 'detailed design', #129, 'design' ) ;
#19 = FACE_OUTER_BOUND ( 'NONE', #132, .T. ) ;
#20 = FACE_OUTER_BOUND ( 'NONE', #48, .T. ) ;
#21 = CARTESIAN_POINT ( 'NONE',  ( 0.000000000000000000, 0.000000000000000000, 10.00000000000000000 ) ) ;
#22 = AXIS2_PLACEMENT_3D ( 'NONE', #40, #192, #23 ) ;
#23 = DIRECTION ( 'NONE',  ( 1.000000000000000000, 0.000000000000000000, 0.000000000000000000 ) ) ;
#24 = CC_DESIGN_APPROVAL ( #69, ( #218 ) ) ;
#25 = EDGE_CURVE ( 'NONE', #166, #223, #39, .T. ) ;
#26 = DATE_AND_TIME ( #181, #66 ) ;
#27 = AXIS2_PLACEMENT_3D ( 'NONE', #58, #233, #91 ) ;
#28 = APPROVAL_ROLE ( '' ) ;
#29 = EDGE_LOOP ( 'NONE', ( #128, #71, #73, #107 ) ) ;
#30 = CIRCLE ( 'NONE', #119, 16.00000000000000000 ) ;
#31 = LINE ( 'NONE', #242, #125 ) ;
#32 = CARTESIAN_POINT ( 'NONE',  ( 0.000000000000000000, 0.000000000000000000, 250.0000000000000000 ) ) ;
#33 = VERTEX_POINT ( 'NONE', #60 ) ;
#34 = LINE ( 'NONE', #159, #187 ) ;
#35 = ORIENTED_EDGE ( 'NONE', *, *, #143, .F. ) ;
#36 = LOCAL_TIME ( 8, 46, 56.00000000000000000, #97 ) ;
#37 = DIRECTION ( 'NONE',  ( 1.000000000000000000, 0.000000000000000000, -0.000000000000000000 ) ) ;
#38 = CYLINDRICAL_SURFACE ( 'NONE', #220, 16.00000000000000000 ) ;
#39 = LINE ( 'NONE', #191, #117 ) ;
#40 = CARTESIAN_POINT ( 'NONE',  ( 0.000000000000000000, 0.000000000000000000, 0.000000000000000000 ) ) ;
#41 = CLOSED_SHELL ( 'NONE', ( #232, #70, #113, #179, #239, #202, #121 ) ) ;
#42 = DATE_TIME_ROLE ( 'creation_date' ) ;
#43 = CC_DESIGN_APPROVAL ( #194, ( #178 ) ) ;
#44 = APPROVAL_DATE_TIME ( #26, #194 ) ;
#45 = CALENDAR_DATE ( 2023, 13, 2 ) ;
#46 = PERSON_AND_ORGANIZATION ( #123, #150 ) ;
#47 = AXIS2_PLACEMENT_3D ( 'NONE', #137, #141, #37 ) ;
#48 = EDGE_LOOP ( 'NONE', ( #68, #104 ) ) ;
#49 = ORIENTED_EDGE ( 'NONE', *, *, #94, .T. ) ;
#50 = ORIENTED_EDGE ( 'NONE', *, *, #235, .T. ) ;
#51 = CARTESIAN_POINT ( 'NONE',  ( -16.00000000000000000, 0.000000000000000000, 10.00000000000000000 ) ) ;
#52 = ORIENTED_EDGE ( 'NONE', *, *, #25, .F. ) ;
#53 = DIRECTION ( 'NONE',  ( -1.000000000000000000, 0.000000000000000000, 0.000000000000000000 ) ) ;
#54 = ADVANCED_BREP_SHAPE_REPRESENTATION ( 'd497', ( #134, #22 ), #1 ) ;
#55 = EDGE_CURVE ( 'NONE', #223, #33, #234, .T. ) ;
#56 = DIRECTION ( 'NONE',  ( 1.000000000000000000, 0.000000000000000000, -0.000000000000000000 ) ) ;
#57 = DIRECTION ( 'NONE',  ( -0.000000000000000000, -0.000000000000000000, -1.000000000000000000 ) ) ;
#58 = CARTESIAN_POINT ( 'NONE',  ( 0.000000000000000000, 0.000000000000000000, 0.000000000000000000 ) ) ;
#59 = DIRECTION ( 'NONE',  ( 0.000000000000000000, 0.000000000000000000, 1.000000000000000000 ) ) ;
#60 = CARTESIAN_POINT ( 'NONE',  ( 16.00000000000000000, 1.959434878635765131E-15, 10.00000000000000000 ) ) ;
#61 = CIRCLE ( 'NONE', #245, 16.00000000000000000 ) ;
#62 = APPROVAL_ROLE ( '' ) ;
#63 = PERSON_AND_ORGANIZATION ( #123, #150 ) ;
#64 = PERSON_AND_ORGANIZATION ( #123, #150 ) ;
#65 = PRODUCT_DEFINITION_SHAPE ( 'NONE', 'NONE',  #151 ) ;
#66 = LOCAL_TIME ( 8, 46, 56.00000000000000000, #120 ) ;
#67 = DIRECTION ( 'NONE',  ( -0.000000000000000000, -0.000000000000000000, -1.000000000000000000 ) ) ;
#68 = ORIENTED_EDGE ( 'NONE', *, *, #214, .T. ) ;
#69 = APPROVAL ( #197, 'NEURÈENÝ' ) ;
#70 = ADVANCED_FACE ( 'NONE', ( #251 ), #228, .T. ) ;
#71 = ORIENTED_EDGE ( 'NONE', *, *, #4, .T. ) ;
#72 = AXIS2_PLACEMENT_3D ( 'NONE', #74, #168, #250 ) ;
#73 = ORIENTED_EDGE ( 'NONE', *, *, #143, .T. ) ;
#74 = CARTESIAN_POINT ( 'NONE',  ( 0.000000000000000000, 0.000000000000000000, 10.00000000000000000 ) ) ;
#75 = ORIENTED_EDGE ( 'NONE', *, *, #188, .T. ) ;
#76 = CYLINDRICAL_SURFACE ( 'NONE', #180, 20.00000000000000000 ) ;
#77 = DIRECTION ( 'NONE',  ( 1.000000000000000000, 0.000000000000000000, 0.000000000000000000 ) ) ;
#78 = LOCAL_TIME ( 8, 46, 56.00000000000000000, #165 ) ;
#79 = DIRECTION ( 'NONE',  ( 0.000000000000000000, 0.000000000000000000, 1.000000000000000000 ) ) ;
#80 = DIRECTION ( 'NONE',  ( 0.000000000000000000, 0.000000000000000000, 1.000000000000000000 ) ) ;
#81 = FACE_BOUND ( 'NONE', #244, .T. ) ;
#82 = EDGE_CURVE ( 'NONE', #207, #166, #61, .T. ) ;
#83 = AXIS2_PLACEMENT_3D ( 'NONE', #208, #133, #89 ) ;
#84 = CC_DESIGN_DATE_AND_TIME_ASSIGNMENT ( #198, #42, ( #151 ) ) ;
#85 = PERSON_AND_ORGANIZATION ( #123, #150 ) ;
#86 = DATE_AND_TIME ( #236, #78 ) ;
#87 = COORDINATED_UNIVERSAL_TIME_OFFSET ( 1, 0, .AHEAD. ) ;
#88 = PERSON_AND_ORGANIZATION ( #123, #150 ) ;
#89 = DIRECTION ( 'NONE',  ( 1.000000000000000000, 0.000000000000000000, 0.000000000000000000 ) ) ;
#90 = AXIS2_PLACEMENT_3D ( 'NONE', #32, #211, #227 ) ;
#91 = DIRECTION ( 'NONE',  ( 1.000000000000000000, 0.000000000000000000, 0.000000000000000000 ) ) ;
#92 = DIRECTION ( 'NONE',  ( -0.000000000000000000, -0.000000000000000000, -1.000000000000000000 ) ) ;
#93 = DIRECTION ( 'NONE',  ( 0.000000000000000000, 0.000000000000000000, 1.000000000000000000 ) ) ;
#94 = EDGE_CURVE ( 'NONE', #33, #223, #30, .T. ) ;
#95 = APPROVAL_PERSON_ORGANIZATION ( #85, #69, #122 ) ;
#96 = DATE_AND_TIME ( #162, #136 ) ;
#97 = COORDINATED_UNIVERSAL_TIME_OFFSET ( 1, 0, .AHEAD. ) ;
#98 = VECTOR ( 'NONE', #158, 1000.000000000000000 ) ;
#99 = CC_DESIGN_PERSON_AND_ORGANIZATION_ASSIGNMENT ( #6, #2, ( #178 ) ) ;
#100 = DIRECTION ( 'NONE',  ( 1.000000000000000000, 0.000000000000000000, 0.000000000000000000 ) ) ;
#101 = CARTESIAN_POINT ( 'NONE',  ( 0.000000000000000000, 0.000000000000000000, 10.00000000000000000 ) ) ;
#102 = ORIENTED_EDGE ( 'NONE', *, *, #184, .T. ) ;
#103 = CARTESIAN_POINT ( 'NONE',  ( -20.00000000000000000, 0.000000000000000000, 0.000000000000000000 ) ) ;
#104 = ORIENTED_EDGE ( 'NONE', *, *, #82, .T. ) ;
#105 = CARTESIAN_POINT ( 'NONE',  ( 0.000000000000000000, 0.000000000000000000, 250.0000000000000000 ) ) ;
#106 = AXIS2_PLACEMENT_3D ( 'NONE', #225, #59, #156 ) ;
#107 = ORIENTED_EDGE ( 'NONE', *, *, #184, .F. ) ;
#108 = UNCERTAINTY_MEASURE_WITH_UNIT (LENGTH_MEASURE( 1.000000000000000082E-05 ), #16, 'distance_accuracy_value', 'NONE');
#109 =( NAMED_UNIT ( * ) SI_UNIT ( $, .STERADIAN. ) SOLID_ANGLE_UNIT ( ) );
#110 = FACE_OUTER_BOUND ( 'NONE', #149, .T. ) ;
#111 = CARTESIAN_POINT ( 'NONE',  ( 0.000000000000000000, 0.000000000000000000, 10.00000000000000000 ) ) ;
#112 = CC_DESIGN_DATE_AND_TIME_ASSIGNMENT ( #195, #147, ( #218 ) ) ;
#113 = ADVANCED_FACE ( 'NONE', ( #110 ), #76, .T. ) ;
#114 = DIRECTION ( 'NONE',  ( 0.000000000000000000, 0.000000000000000000, 1.000000000000000000 ) ) ;
#115 = CARTESIAN_POINT ( 'NONE',  ( 0.000000000000000000, 0.000000000000000000, 250.0000000000000000 ) ) ;
#116 = APPROVAL_PERSON_ORGANIZATION ( #46, #216, #28 ) ;
#117 = VECTOR ( 'NONE', #92, 1000.000000000000000 ) ;
#118 = APPROVAL_STATUS ( 'not_yet_approved' ) ;
#119 = AXIS2_PLACEMENT_3D ( 'NONE', #21, #93, #77 ) ;
#120 = COORDINATED_UNIVERSAL_TIME_OFFSET ( 1, 0, .AHEAD. ) ;
#121 = ADVANCED_FACE ( 'NONE', ( #20 ), #255, .T. ) ;
#122 = APPROVAL_ROLE ( '' ) ;
#123 = PERSON ( 'NEURÈENÝ', 'NEURÈENÝ', 'NEURÈENÝ', ('NEURÈENÝ'), ('NEURÈENÝ'), ('NEURÈENÝ') ) ;
#124 = PERSON_AND_ORGANIZATION_ROLE ( 'design_supplier' ) ;
#125 = VECTOR ( 'NONE', #67, 1000.000000000000000 ) ;
#126 = CC_DESIGN_PERSON_AND_ORGANIZATION_ASSIGNMENT ( #219, #238, ( #151 ) ) ;
#127 = DIRECTION ( 'NONE',  ( 0.000000000000000000, 0.000000000000000000, 1.000000000000000000 ) ) ;
#128 = ORIENTED_EDGE ( 'NONE', *, *, #188, .F. ) ;
#129 = APPLICATION_CONTEXT ( 'configuration controlled 3d designs of mechanical parts and assemblies' ) ;
#130 = EDGE_LOOP ( 'NONE', ( #222, #35 ) ) ;
#131 = FACE_OUTER_BOUND ( 'NONE', #153, .T. ) ;
#132 = EDGE_LOOP ( 'NONE', ( #148, #204, #247, #14 ) ) ;
#133 = DIRECTION ( 'NONE',  ( 0.000000000000000000, 0.000000000000000000, 1.000000000000000000 ) ) ;
#134 = MANIFOLD_SOLID_BREP ( 'Pøidat vysunutím3', #41 ) ;
#135 = EDGE_LOOP ( 'NONE', ( #189, #75 ) ) ;
#136 = LOCAL_TIME ( 8, 46, 56.00000000000000000, #87 ) ;
#137 = CARTESIAN_POINT ( 'NONE',  ( 0.000000000000000000, 0.000000000000000000, 250.0000000000000000 ) ) ;
#138 = DIRECTION ( 'NONE',  ( -0.000000000000000000, -0.000000000000000000, -1.000000000000000000 ) ) ;
#139 = CC_DESIGN_PERSON_AND_ORGANIZATION_ASSIGNMENT ( #88, #200, ( #218 ) ) ;
#140 = EDGE_CURVE ( 'NONE', #207, #33, #210, .T. ) ;
#141 = DIRECTION ( 'NONE',  ( 0.000000000000000000, 0.000000000000000000, 1.000000000000000000 ) ) ;
#142 = DIRECTION ( 'NONE',  ( 1.000000000000000000, 0.000000000000000000, 0.000000000000000000 ) ) ;
#143 = EDGE_CURVE ( 'NONE', #11, #226, #5, .T. ) ;
#144 = COORDINATED_UNIVERSAL_TIME_OFFSET ( 1, 0, .AHEAD. ) ;
#145 = PERSON_AND_ORGANIZATION ( #123, #150 ) ;
#146 = PRODUCT ( 'd497', 'd497', '', ( #177 ) ) ;
#147 = DATE_TIME_ROLE ( 'classification_date' ) ;
#148 = ORIENTED_EDGE ( 'NONE', *, *, #140, .F. ) ;
#149 = EDGE_LOOP ( 'NONE', ( #203, #17, #102, #50 ) ) ;
#150 = ORGANIZATION ( 'NEURÈENÝ', 'NEURÈENÝ', '' ) ;
#151 = PRODUCT_DEFINITION ( 'NEZNÁMÝ', '', #178, #18 ) ;
#152 = CARTESIAN_POINT ( 'NONE',  ( 16.00000000000000000, 1.959434878635765131E-15, 250.0000000000000000 ) ) ;
#153 = EDGE_LOOP ( 'NONE', ( #224, #12, #49, #52 ) ) ;
#154 = PLANE ( 'NONE',  #106 ) ;
#155 = DIRECTION ( 'NONE',  ( -1.000000000000000000, 0.000000000000000000, 0.000000000000000000 ) ) ;
#156 = DIRECTION ( 'NONE',  ( 1.000000000000000000, 0.000000000000000000, -0.000000000000000000 ) ) ;
#157 = APPROVAL_PERSON_ORGANIZATION ( #64, #194, #62 ) ;
#158 = DIRECTION ( 'NONE',  ( -0.000000000000000000, -0.000000000000000000, -1.000000000000000000 ) ) ;
#159 = CARTESIAN_POINT ( 'NONE',  ( -20.00000000000000000, 0.000000000000000000, 10.00000000000000000 ) ) ;
#160 = DIRECTION ( 'NONE',  ( 1.000000000000000000, 0.000000000000000000, 0.000000000000000000 ) ) ;
#161 = CIRCLE ( 'NONE', #253, 20.00000000000000000 ) ;
#162 = CALENDAR_DATE ( 2023, 13, 2 ) ;
#163 = APPROVAL_STATUS ( 'not_yet_approved' ) ;
#164 = APPROVAL_DATE_TIME ( #96, #69 ) ;
#165 = COORDINATED_UNIVERSAL_TIME_OFFSET ( 1, 0, .AHEAD. ) ;
#166 = VERTEX_POINT ( 'NONE', #185 ) ;
#167 = CC_DESIGN_SECURITY_CLASSIFICATION ( #218, ( #178 ) ) ;
#168 = DIRECTION ( 'NONE',  ( 0.000000000000000000, 0.000000000000000000, 1.000000000000000000 ) ) ;
#169 = CIRCLE ( 'NONE', #72, 20.00000000000000000 ) ;
#170 = VERTEX_POINT ( 'NONE', #246 ) ;
#171 = DIRECTION ( 'NONE',  ( -0.000000000000000000, -0.000000000000000000, -1.000000000000000000 ) ) ;
#172 = PRODUCT_RELATED_PRODUCT_CATEGORY ( 'detail', '', ( #146 ) ) ;
#173 = CARTESIAN_POINT ( 'NONE',  ( 0.000000000000000000, 0.000000000000000000, 10.00000000000000000 ) ) ;
#174 = DIRECTION ( 'NONE',  ( -0.000000000000000000, -0.000000000000000000, -1.000000000000000000 ) ) ;
#175 = FACE_OUTER_BOUND ( 'NONE', #135, .T. ) ;
#176 = CARTESIAN_POINT ( 'NONE',  ( 16.00000000000000000, 1.959434878635765131E-15, 250.0000000000000000 ) ) ;
#177 = MECHANICAL_CONTEXT ( 'NONE', #196, 'mechanical' ) ;
#178 = PRODUCT_DEFINITION_FORMATION_WITH_SPECIFIED_SOURCE ( 'LIBOVOLNÝ', '', #146, .NOT_KNOWN. ) ;
#179 = ADVANCED_FACE ( 'NONE', ( #81, #175 ), #254, .T. ) ;
#180 = AXIS2_PLACEMENT_3D ( 'NONE', #230, #57, #155 ) ;
#181 = CALENDAR_DATE ( 2023, 13, 2 ) ;
#182 = AXIS2_PLACEMENT_3D ( 'NONE', #111, #79, #56 ) ;
#183 = CARTESIAN_POINT ( 'NONE',  ( 20.00000000000000000, 2.449293598294706513E-15, 0.000000000000000000 ) ) ;
#184 = EDGE_CURVE ( 'NONE', #243, #226, #34, .T. ) ;
#185 = CARTESIAN_POINT ( 'NONE',  ( -16.00000000000000000, 0.000000000000000000, 250.0000000000000000 ) ) ;
#186 = ORIENTED_EDGE ( 'NONE', *, *, #94, .F. ) ;
#187 = VECTOR ( 'NONE', #138, 1000.000000000000000 ) ;
#188 = EDGE_CURVE ( 'NONE', #170, #243, #169, .T. ) ;
#189 = ORIENTED_EDGE ( 'NONE', *, *, #7, .T. ) ;
#190 = CARTESIAN_POINT ( 'NONE',  ( 0.000000000000000000, 0.000000000000000000, 10.00000000000000000 ) ) ;
#191 = CARTESIAN_POINT ( 'NONE',  ( -16.00000000000000000, 0.000000000000000000, 250.0000000000000000 ) ) ;
#192 = DIRECTION ( 'NONE',  ( 0.000000000000000000, 0.000000000000000000, 1.000000000000000000 ) ) ;
#193 = CC_DESIGN_PERSON_AND_ORGANIZATION_ASSIGNMENT ( #145, #3, ( #146 ) ) ;
#194 = APPROVAL ( #118, 'NEURÈENÝ' ) ;
#195 = DATE_AND_TIME ( #45, #209 ) ;
#196 = APPLICATION_CONTEXT ( 'configuration controlled 3d designs of mechanical parts and assemblies' ) ;
#197 = APPROVAL_STATUS ( 'not_yet_approved' ) ;
#198 = DATE_AND_TIME ( #8, #36 ) ;
#199 = CIRCLE ( 'NONE', #90, 16.00000000000000000 ) ;
#200 = PERSON_AND_ORGANIZATION_ROLE ( 'classification_officer' ) ;
#201 = SECURITY_CLASSIFICATION_LEVEL ( 'unclassified' ) ;
#202 = ADVANCED_FACE ( 'NONE', ( #19 ), #205, .T. ) ;
#203 = ORIENTED_EDGE ( 'NONE', *, *, #4, .F. ) ;
#204 = ORIENTED_EDGE ( 'NONE', *, *, #214, .F. ) ;
#205 = CYLINDRICAL_SURFACE ( 'NONE', #215, 16.00000000000000000 ) ;
#206 = CARTESIAN_POINT ( 'NONE',  ( -20.00000000000000000, 0.000000000000000000, 10.00000000000000000 ) ) ;
#207 = VERTEX_POINT ( 'NONE', #152 ) ;
#208 = CARTESIAN_POINT ( 'NONE',  ( 0.000000000000000000, 0.000000000000000000, 0.000000000000000000 ) ) ;
#209 = LOCAL_TIME ( 8, 46, 56.00000000000000000, #144 ) ;
#210 = LINE ( 'NONE', #176, #98 ) ;
#211 = DIRECTION ( 'NONE',  ( 0.000000000000000000, 0.000000000000000000, 1.000000000000000000 ) ) ;
#212 = DIRECTION ( 'NONE',  ( -1.000000000000000000, 0.000000000000000000, 0.000000000000000000 ) ) ;
#213 = APPLICATION_PROTOCOL_DEFINITION ( 'international standard', 'config_control_design', 1994, #196 ) ;
#214 = EDGE_CURVE ( 'NONE', #166, #207, #199, .T. ) ;
#215 = AXIS2_PLACEMENT_3D ( 'NONE', #115, #171, #53 ) ;
#216 = APPROVAL ( #163, 'NEURÈENÝ' ) ;
#217 = APPLICATION_PROTOCOL_DEFINITION ( 'international standard', 'config_control_design', 1994, #129 ) ;
#218 = SECURITY_CLASSIFICATION ( '', '', #201 ) ;
#219 = PERSON_AND_ORGANIZATION ( #123, #150 ) ;
#220 = AXIS2_PLACEMENT_3D ( 'NONE', #105, #13, #229 ) ;
#221 = SHAPE_DEFINITION_REPRESENTATION ( #65, #54 ) ;
#222 = ORIENTED_EDGE ( 'NONE', *, *, #235, .F. ) ;
#223 = VERTEX_POINT ( 'NONE', #51 ) ;
#224 = ORIENTED_EDGE ( 'NONE', *, *, #82, .F. ) ;
#225 = CARTESIAN_POINT ( 'NONE',  ( 0.000000000000000000, 0.000000000000000000, 0.000000000000000000 ) ) ;
#226 = VERTEX_POINT ( 'NONE', #103 ) ;
#227 = DIRECTION ( 'NONE',  ( 1.000000000000000000, 0.000000000000000000, 0.000000000000000000 ) ) ;
#228 = CYLINDRICAL_SURFACE ( 'NONE', #237, 20.00000000000000000 ) ;
#229 = DIRECTION ( 'NONE',  ( -1.000000000000000000, 0.000000000000000000, 0.000000000000000000 ) ) ;
#230 = CARTESIAN_POINT ( 'NONE',  ( 0.000000000000000000, 0.000000000000000000, 10.00000000000000000 ) ) ;
#231 = FACE_OUTER_BOUND ( 'NONE', #130, .T. ) ;
#232 = ADVANCED_FACE ( 'NONE', ( #131 ), #38, .T. ) ;
#233 = DIRECTION ( 'NONE',  ( 0.000000000000000000, 0.000000000000000000, 1.000000000000000000 ) ) ;
#234 = CIRCLE ( 'NONE', #15, 16.00000000000000000 ) ;
#235 = EDGE_CURVE ( 'NONE', #226, #11, #241, .T. ) ;
#236 = CALENDAR_DATE ( 2023, 13, 2 ) ;
#237 = AXIS2_PLACEMENT_3D ( 'NONE', #190, #174, #212 ) ;
#238 = PERSON_AND_ORGANIZATION_ROLE ( 'creator' ) ;
#239 = ADVANCED_FACE ( 'NONE', ( #231 ), #154, .F. ) ;
#240 = APPROVAL_DATE_TIME ( #86, #216 ) ;
#241 = CIRCLE ( 'NONE', #83, 20.00000000000000000 ) ;
#242 = CARTESIAN_POINT ( 'NONE',  ( 20.00000000000000000, 2.449293598294706513E-15, 10.00000000000000000 ) ) ;
#243 = VERTEX_POINT ( 'NONE', #206 ) ;
#244 = EDGE_LOOP ( 'NONE', ( #10, #186 ) ) ;
#245 = AXIS2_PLACEMENT_3D ( 'NONE', #249, #80, #142 ) ;
#246 = CARTESIAN_POINT ( 'NONE',  ( 20.00000000000000000, 2.449293598294706513E-15, 10.00000000000000000 ) ) ;
#247 = ORIENTED_EDGE ( 'NONE', *, *, #25, .T. ) ;
#248 =( NAMED_UNIT ( * ) PLANE_ANGLE_UNIT ( ) SI_UNIT ( $, .RADIAN. ) );
#249 = CARTESIAN_POINT ( 'NONE',  ( 0.000000000000000000, 0.000000000000000000, 250.0000000000000000 ) ) ;
#250 = DIRECTION ( 'NONE',  ( 1.000000000000000000, 0.000000000000000000, 0.000000000000000000 ) ) ;
#251 = FACE_OUTER_BOUND ( 'NONE', #29, .T. ) ;
#252 = CC_DESIGN_PERSON_AND_ORGANIZATION_ASSIGNMENT ( #63, #124, ( #178 ) ) ;
#253 = AXIS2_PLACEMENT_3D ( 'NONE', #101, #127, #100 ) ;
#254 = PLANE ( 'NONE',  #182 ) ;
#255 = PLANE ( 'NONE',  #47 ) ;
ENDSEC;
END-ISO-10303-21;
