ISO-10303-21;
HEADER;
FILE_DESCRIPTION (( 'STEP AP203' ),
    '1' );
FILE_NAME ('e7c9.STEP',
    '2023-02-13T17:26:50',
    ( '' ),
    ( '' ),
    'SwSTEP 2.0',
    'SolidWorks 2019',
    '' );
FILE_SCHEMA (( 'CONFIG_CONTROL_DESIGN' ));
ENDSEC;

DATA;
#1 = PLANE ( 'NONE',  #192 ) ;
#2 = FACE_OUTER_BOUND ( 'NONE', #68, .T. ) ;
#3 = CARTESIAN_POINT ( 'NONE',  ( 0.000000000000000000, 0.000000000000000000, 1.199999999999999956 ) ) ;
#4 = PERSON_AND_ORGANIZATION ( #120, #187 ) ;
#5 = COORDINATED_UNIVERSAL_TIME_OFFSET ( 1, 0, .AHEAD. ) ;
#6 = APPROVAL_DATE_TIME ( #114, #246 ) ;
#7 = VERTEX_POINT ( 'NONE', #16 ) ;
#8 = CARTESIAN_POINT ( 'NONE',  ( -0.5999999999999999778, 0.000000000000000000, 200.0000000000000000 ) ) ;
#9 =( GEOMETRIC_REPRESENTATION_CONTEXT ( 3 ) GLOBAL_UNCERTAINTY_ASSIGNED_CONTEXT ( ( #127 ) ) GLOBAL_UNIT_ASSIGNED_CONTEXT ( ( #80, #158, #179 ) ) REPRESENTATION_CONTEXT ( 'NONE', 'WORKASPACE' ) );
#10 = VECTOR ( 'NONE', #172, 1000.000000000000000 ) ;
#11 = ORIENTED_EDGE ( 'NONE', *, *, #189, .T. ) ;
#12 = CC_DESIGN_DATE_AND_TIME_ASSIGNMENT ( #97, #81, ( #137 ) ) ;
#13 = ORIENTED_EDGE ( 'NONE', *, *, #254, .T. ) ;
#14 = VECTOR ( 'NONE', #230, 1000.000000000000000 ) ;
#15 = EDGE_CURVE ( 'NONE', #31, #167, #71, .T. ) ;
#16 = CARTESIAN_POINT ( 'NONE',  ( 0.5999999999999999778, 7.347880794884117764E-17, 1.199999999999999956 ) ) ;
#17 = APPROVAL_PERSON_ORGANIZATION ( #99, #103, #242 ) ;
#18 = EDGE_LOOP ( 'NONE', ( #87, #85, #212, #98 ) ) ;
#19 = CARTESIAN_POINT ( 'NONE',  ( 0.000000000000000000, 0.000000000000000000, 1.199999999999999956 ) ) ;
#20 = AXIS2_PLACEMENT_3D ( 'NONE', #191, #195, #150 ) ;
#21 = CARTESIAN_POINT ( 'NONE',  ( 0.5999999999999999778, 7.347880794884117764E-17, 200.0000000000000000 ) ) ;
#22 = CARTESIAN_POINT ( 'NONE',  ( 0.000000000000000000, 0.000000000000000000, 200.0000000000000000 ) ) ;
#23 = CARTESIAN_POINT ( 'NONE',  ( 0.5999999999999999778, 7.347880794884117764E-17, 200.0000000000000000 ) ) ;
#24 = PERSON_AND_ORGANIZATION_ROLE ( 'creator' ) ;
#25 = ORIENTED_EDGE ( 'NONE', *, *, #151, .T. ) ;
#26 = PERSON_AND_ORGANIZATION ( #120, #187 ) ;
#27 = COORDINATED_UNIVERSAL_TIME_OFFSET ( 1, 0, .AHEAD. ) ;
#28 = CIRCLE ( 'NONE', #110, 0.5999999999999999778 ) ;
#29 = CIRCLE ( 'NONE', #142, 1.250000000000000000 ) ;
#30 = SECURITY_CLASSIFICATION_LEVEL ( 'unclassified' ) ;
#31 = VERTEX_POINT ( 'NONE', #147 ) ;
#32 = VERTEX_POINT ( 'NONE', #74 ) ;
#33 = CC_DESIGN_PERSON_AND_ORGANIZATION_ASSIGNMENT ( #222, #96, ( #132 ) ) ;
#34 = CARTESIAN_POINT ( 'NONE',  ( 1.250000000000000000, 1.530808498934191571E-16, 0.000000000000000000 ) ) ;
#35 = FACE_OUTER_BOUND ( 'NONE', #197, .T. ) ;
#36 = CARTESIAN_POINT ( 'NONE',  ( 0.000000000000000000, 0.000000000000000000, 0.000000000000000000 ) ) ;
#37 = VECTOR ( 'NONE', #138, 1000.000000000000000 ) ;
#38 = CARTESIAN_POINT ( 'NONE',  ( 0.000000000000000000, 0.000000000000000000, 1.199999999999999956 ) ) ;
#39 = CIRCLE ( 'NONE', #221, 1.250000000000000000 ) ;
#40 = FACE_OUTER_BOUND ( 'NONE', #18, .T. ) ;
#41 = CLOSED_SHELL ( 'NONE', ( #117, #217, #238, #203, #161, #178, #228 ) ) ;
#42 = APPLICATION_PROTOCOL_DEFINITION ( 'international standard', 'config_control_design', 1994, #91 ) ;
#43 = LOCAL_TIME ( 18, 26, 50.00000000000000000, #223 ) ;
#44 = DATE_AND_TIME ( #184, #219 ) ;
#45 = APPROVAL_DATE_TIME ( #190, #145 ) ;
#46 = EDGE_LOOP ( 'NONE', ( #54, #69 ) ) ;
#47 = APPROVAL_PERSON_ORGANIZATION ( #84, #246, #163 ) ;
#48 = CARTESIAN_POINT ( 'NONE',  ( 0.000000000000000000, 0.000000000000000000, 200.0000000000000000 ) ) ;
#49 = CIRCLE ( 'NONE', #185, 0.5999999999999999778 ) ;
#50 = EDGE_LOOP ( 'NONE', ( #102, #166 ) ) ;
#51 = ORIENTED_EDGE ( 'NONE', *, *, #70, .F. ) ;
#52 = DESIGN_CONTEXT ( 'detailed design', #91, 'design' ) ;
#53 = DIRECTION ( 'NONE',  ( 1.000000000000000000, 0.000000000000000000, 0.000000000000000000 ) ) ;
#54 = ORIENTED_EDGE ( 'NONE', *, *, #183, .F. ) ;
#55 = DIRECTION ( 'NONE',  ( 1.000000000000000000, 0.000000000000000000, 0.000000000000000000 ) ) ;
#56 = CARTESIAN_POINT ( 'NONE',  ( 0.000000000000000000, 0.000000000000000000, 1.199999999999999956 ) ) ;
#57 = CARTESIAN_POINT ( 'NONE',  ( 0.000000000000000000, 0.000000000000000000, 200.0000000000000000 ) ) ;
#58 = LOCAL_TIME ( 18, 26, 50.00000000000000000, #5 ) ;
#59 = APPROVAL_ROLE ( '' ) ;
#60 = EDGE_CURVE ( 'NONE', #31, #209, #75, .T. ) ;
#61 = DIRECTION ( 'NONE',  ( 1.000000000000000000, 0.000000000000000000, 0.000000000000000000 ) ) ;
#62 = CC_DESIGN_APPROVAL ( #103, ( #154 ) ) ;
#63 = APPROVAL_STATUS ( 'not_yet_approved' ) ;
#64 = PERSON_AND_ORGANIZATION ( #120, #187 ) ;
#65 = EDGE_CURVE ( 'NONE', #32, #122, #39, .T. ) ;
#66 = PERSON_AND_ORGANIZATION_ROLE ( 'creator' ) ;
#67 = APPROVAL_PERSON_ORGANIZATION ( #188, #145, #59 ) ;
#68 = EDGE_LOOP ( 'NONE', ( #123, #186, #25, #247 ) ) ;
#69 = ORIENTED_EDGE ( 'NONE', *, *, #189, .F. ) ;
#70 = EDGE_CURVE ( 'NONE', #128, #122, #153, .T. ) ;
#71 = LINE ( 'NONE', #8, #118 ) ;
#72 = LOCAL_TIME ( 18, 26, 50.00000000000000000, #141 ) ;
#73 = DIRECTION ( 'NONE',  ( 0.000000000000000000, 0.000000000000000000, 1.000000000000000000 ) ) ;
#74 = CARTESIAN_POINT ( 'NONE',  ( -1.250000000000000000, 0.000000000000000000, 0.000000000000000000 ) ) ;
#75 = CIRCLE ( 'NONE', #135, 0.5999999999999999778 ) ;
#76 = DIRECTION ( 'NONE',  ( 0.000000000000000000, 0.000000000000000000, 1.000000000000000000 ) ) ;
#77 = AXIS2_PLACEMENT_3D ( 'NONE', #240, #139, #61 ) ;
#78 = DIRECTION ( 'NONE',  ( -0.000000000000000000, -0.000000000000000000, -1.000000000000000000 ) ) ;
#79 = CYLINDRICAL_SURFACE ( 'NONE', #175, 1.250000000000000000 ) ;
#80 =( LENGTH_UNIT ( ) NAMED_UNIT ( * ) SI_UNIT ( .MILLI., .METRE. ) );
#81 = DATE_TIME_ROLE ( 'classification_date' ) ;
#82 = APPROVAL_STATUS ( 'not_yet_approved' ) ;
#83 = PERSON_AND_ORGANIZATION_ROLE ( 'classification_officer' ) ;
#84 = PERSON_AND_ORGANIZATION ( #120, #187 ) ;
#85 = ORIENTED_EDGE ( 'NONE', *, *, #60, .F. ) ;
#86 = DIRECTION ( 'NONE',  ( -0.000000000000000000, -0.000000000000000000, -1.000000000000000000 ) ) ;
#87 = ORIENTED_EDGE ( 'NONE', *, *, #204, .F. ) ;
#88 = CARTESIAN_POINT ( 'NONE',  ( 1.250000000000000000, 1.530808498934191571E-16, 1.199999999999999956 ) ) ;
#89 = CARTESIAN_POINT ( 'NONE',  ( 0.000000000000000000, 0.000000000000000000, 0.000000000000000000 ) ) ;
#90 = DIRECTION ( 'NONE',  ( 1.000000000000000000, 0.000000000000000000, -0.000000000000000000 ) ) ;
#91 = APPLICATION_CONTEXT ( 'configuration controlled 3d designs of mechanical parts and assemblies' ) ;
#92 = CARTESIAN_POINT ( 'NONE',  ( -1.250000000000000000, 0.000000000000000000, 1.199999999999999956 ) ) ;
#93 = DIRECTION ( 'NONE',  ( 0.000000000000000000, 0.000000000000000000, 1.000000000000000000 ) ) ;
#94 = CARTESIAN_POINT ( 'NONE',  ( 0.000000000000000000, 0.000000000000000000, 1.199999999999999956 ) ) ;
#95 = FACE_BOUND ( 'NONE', #46, .T. ) ;
#96 = PERSON_AND_ORGANIZATION_ROLE ( 'design_supplier' ) ;
#97 = DATE_AND_TIME ( #119, #58 ) ;
#98 = ORIENTED_EDGE ( 'NONE', *, *, #183, .T. ) ;
#99 = PERSON_AND_ORGANIZATION ( #120, #187 ) ;
#100 = CALENDAR_DATE ( 2023, 13, 2 ) ;
#101 = AXIS2_PLACEMENT_3D ( 'NONE', #225, #86, #169 ) ;
#102 = ORIENTED_EDGE ( 'NONE', *, *, #60, .T. ) ;
#103 = APPROVAL ( #82, 'NEURÈENÝ' ) ;
#104 = ORIENTED_EDGE ( 'NONE', *, *, #130, .F. ) ;
#105 = DIRECTION ( 'NONE',  ( 0.000000000000000000, 0.000000000000000000, 1.000000000000000000 ) ) ;
#106 = CYLINDRICAL_SURFACE ( 'NONE', #101, 0.5999999999999999778 ) ;
#107 = ORIENTED_EDGE ( 'NONE', *, *, #65, .T. ) ;
#108 = DIRECTION ( 'NONE',  ( -0.000000000000000000, -0.000000000000000000, -1.000000000000000000 ) ) ;
#109 = DIRECTION ( 'NONE',  ( 1.000000000000000000, 0.000000000000000000, 0.000000000000000000 ) ) ;
#110 = AXIS2_PLACEMENT_3D ( 'NONE', #94, #76, #55 ) ;
#111 = DIRECTION ( 'NONE',  ( 1.000000000000000000, 0.000000000000000000, -0.000000000000000000 ) ) ;
#112 = DIRECTION ( 'NONE',  ( 1.000000000000000000, 0.000000000000000000, 0.000000000000000000 ) ) ;
#113 = CC_DESIGN_DATE_AND_TIME_ASSIGNMENT ( #44, #205, ( #154 ) ) ;
#114 = DATE_AND_TIME ( #100, #43 ) ;
#115 = AXIS2_PLACEMENT_3D ( 'NONE', #56, #234, #112 ) ;
#116 = APPROVAL_DATE_TIME ( #144, #103 ) ;
#117 = ADVANCED_FACE ( 'NONE', ( #214 ), #106, .T. ) ;
#118 = VECTOR ( 'NONE', #148, 1000.000000000000000 ) ;
#119 = CALENDAR_DATE ( 2023, 13, 2 ) ;
#120 = PERSON ( 'NEURÈENÝ', 'NEURÈENÝ', 'NEURÈENÝ', ('NEURÈENÝ'), ('NEURÈENÝ'), ('NEURÈENÝ') ) ;
#121 = CC_DESIGN_SECURITY_CLASSIFICATION ( #137, ( #132 ) ) ;
#122 = VERTEX_POINT ( 'NONE', #34 ) ;
#123 = ORIENTED_EDGE ( 'NONE', *, *, #194, .F. ) ;
#124 = CIRCLE ( 'NONE', #20, 1.250000000000000000 ) ;
#125 = CARTESIAN_POINT ( 'NONE',  ( 1.250000000000000000, 1.530808498934191571E-16, 1.199999999999999956 ) ) ;
#126 = ORIENTED_EDGE ( 'NONE', *, *, #15, .F. ) ;
#127 = UNCERTAINTY_MEASURE_WITH_UNIT (LENGTH_MEASURE( 1.000000000000000082E-05 ), #80, 'distance_accuracy_value', 'NONE');
#128 = VERTEX_POINT ( 'NONE', #88 ) ;
#129 = ADVANCED_BREP_SHAPE_REPRESENTATION ( 'e7c9', ( #244, #77 ), #9 ) ;
#130 = EDGE_CURVE ( 'NONE', #209, #31, #252, .T. ) ;
#131 = DIRECTION ( 'NONE',  ( 0.000000000000000000, 0.000000000000000000, 1.000000000000000000 ) ) ;
#132 = PRODUCT_DEFINITION_FORMATION_WITH_SPECIFIED_SOURCE ( 'LIBOVOLNÝ', '', #233, .NOT_KNOWN. ) ;
#133 = DIRECTION ( 'NONE',  ( -1.000000000000000000, 0.000000000000000000, 0.000000000000000000 ) ) ;
#134 = DIRECTION ( 'NONE',  ( 1.000000000000000000, 0.000000000000000000, -0.000000000000000000 ) ) ;
#135 = AXIS2_PLACEMENT_3D ( 'NONE', #226, #73, #227 ) ;
#136 = FACE_OUTER_BOUND ( 'NONE', #251, .T. ) ;
#137 = SECURITY_CLASSIFICATION ( '', '', #30 ) ;
#138 = DIRECTION ( 'NONE',  ( -0.000000000000000000, -0.000000000000000000, -1.000000000000000000 ) ) ;
#139 = DIRECTION ( 'NONE',  ( 0.000000000000000000, 0.000000000000000000, 1.000000000000000000 ) ) ;
#140 = AXIS2_PLACEMENT_3D ( 'NONE', #48, #105, #229 ) ;
#141 = COORDINATED_UNIVERSAL_TIME_OFFSET ( 1, 0, .AHEAD. ) ;
#142 = AXIS2_PLACEMENT_3D ( 'NONE', #218, #155, #109 ) ;
#143 = CALENDAR_DATE ( 2023, 13, 2 ) ;
#144 = DATE_AND_TIME ( #208, #72 ) ;
#145 = APPROVAL ( #63, 'NEURÈENÝ' ) ;
#146 = CC_DESIGN_PERSON_AND_ORGANIZATION_ASSIGNMENT ( #4, #66, ( #154 ) ) ;
#147 = CARTESIAN_POINT ( 'NONE',  ( -0.5999999999999999778, 0.000000000000000000, 200.0000000000000000 ) ) ;
#148 = DIRECTION ( 'NONE',  ( -0.000000000000000000, -0.000000000000000000, -1.000000000000000000 ) ) ;
#149 = AXIS2_PLACEMENT_3D ( 'NONE', #3, #78, #253 ) ;
#150 = DIRECTION ( 'NONE',  ( 1.000000000000000000, 0.000000000000000000, 0.000000000000000000 ) ) ;
#151 = EDGE_CURVE ( 'NONE', #122, #32, #124, .T. ) ;
#152 = DIRECTION ( 'NONE',  ( 0.000000000000000000, 0.000000000000000000, 1.000000000000000000 ) ) ;
#153 = LINE ( 'NONE', #125, #14 ) ;
#154 = PRODUCT_DEFINITION ( 'NEZNÁMÝ', '', #132, #52 ) ;
#155 = DIRECTION ( 'NONE',  ( 0.000000000000000000, 0.000000000000000000, 1.000000000000000000 ) ) ;
#156 = CC_DESIGN_PERSON_AND_ORGANIZATION_ASSIGNMENT ( #64, #24, ( #132 ) ) ;
#157 = APPLICATION_PROTOCOL_DEFINITION ( 'international standard', 'config_control_design', 1994, #207 ) ;
#158 =( NAMED_UNIT ( * ) PLANE_ANGLE_UNIT ( ) SI_UNIT ( $, .RADIAN. ) );
#159 = AXIS2_PLACEMENT_3D ( 'NONE', #57, #215, #133 ) ;
#160 = COORDINATED_UNIVERSAL_TIME_OFFSET ( 1, 0, .AHEAD. ) ;
#161 = ADVANCED_FACE ( 'NONE', ( #35 ), #196, .F. ) ;
#162 = AXIS2_PLACEMENT_3D ( 'NONE', #22, #231, #134 ) ;
#163 = APPROVAL_ROLE ( '' ) ;
#164 = ORIENTED_EDGE ( 'NONE', *, *, #151, .F. ) ;
#165 = PERSON_AND_ORGANIZATION_ROLE ( 'design_owner' ) ;
#166 = ORIENTED_EDGE ( 'NONE', *, *, #130, .T. ) ;
#167 = VERTEX_POINT ( 'NONE', #174 ) ;
#168 = VERTEX_POINT ( 'NONE', #92 ) ;
#169 = DIRECTION ( 'NONE',  ( -1.000000000000000000, 0.000000000000000000, 0.000000000000000000 ) ) ;
#170 = ORIENTED_EDGE ( 'NONE', *, *, #241, .T. ) ;
#171 = CC_DESIGN_PERSON_AND_ORGANIZATION_ASSIGNMENT ( #26, #83, ( #137 ) ) ;
#172 = DIRECTION ( 'NONE',  ( -0.000000000000000000, -0.000000000000000000, -1.000000000000000000 ) ) ;
#173 = AXIS2_PLACEMENT_3D ( 'NONE', #36, #131, #90 ) ;
#174 = CARTESIAN_POINT ( 'NONE',  ( -0.5999999999999999778, 0.000000000000000000, 1.199999999999999956 ) ) ;
#175 = AXIS2_PLACEMENT_3D ( 'NONE', #237, #108, #180 ) ;
#176 = PRODUCT_RELATED_PRODUCT_CATEGORY ( 'detail', '', ( #233 ) ) ;
#177 = FACE_OUTER_BOUND ( 'NONE', #210, .T. ) ;
#178 = ADVANCED_FACE ( 'NONE', ( #40 ), #198, .T. ) ;
#179 =( NAMED_UNIT ( * ) SI_UNIT ( $, .STERADIAN. ) SOLID_ANGLE_UNIT ( ) );
#180 = DIRECTION ( 'NONE',  ( -1.000000000000000000, 0.000000000000000000, 0.000000000000000000 ) ) ;
#181 = PRODUCT_DEFINITION_SHAPE ( 'NONE', 'NONE',  #154 ) ;
#182 = SHAPE_DEFINITION_REPRESENTATION ( #181, #129 ) ;
#183 = EDGE_CURVE ( 'NONE', #167, #7, #49, .T. ) ;
#184 = CALENDAR_DATE ( 2023, 13, 2 ) ;
#185 = AXIS2_PLACEMENT_3D ( 'NONE', #38, #93, #202 ) ;
#186 = ORIENTED_EDGE ( 'NONE', *, *, #70, .T. ) ;
#187 = ORGANIZATION ( 'NEURÈENÝ', 'NEURÈENÝ', '' ) ;
#188 = PERSON_AND_ORGANIZATION ( #120, #187 ) ;
#189 = EDGE_CURVE ( 'NONE', #7, #167, #28, .T. ) ;
#190 = DATE_AND_TIME ( #143, #224 ) ;
#191 = CARTESIAN_POINT ( 'NONE',  ( 0.000000000000000000, 0.000000000000000000, 0.000000000000000000 ) ) ;
#192 = AXIS2_PLACEMENT_3D ( 'NONE', #19, #199, #111 ) ;
#193 = ORIENTED_EDGE ( 'NONE', *, *, #254, .F. ) ;
#194 = EDGE_CURVE ( 'NONE', #128, #168, #243, .T. ) ;
#195 = DIRECTION ( 'NONE',  ( 0.000000000000000000, 0.000000000000000000, 1.000000000000000000 ) ) ;
#196 = PLANE ( 'NONE',  #173 ) ;
#197 = EDGE_LOOP ( 'NONE', ( #250, #164 ) ) ;
#198 = CYLINDRICAL_SURFACE ( 'NONE', #159, 0.5999999999999999778 ) ;
#199 = DIRECTION ( 'NONE',  ( 0.000000000000000000, 0.000000000000000000, 1.000000000000000000 ) ) ;
#200 = LINE ( 'NONE', #21, #10 ) ;
#201 = FACE_OUTER_BOUND ( 'NONE', #50, .T. ) ;
#202 = DIRECTION ( 'NONE',  ( 1.000000000000000000, 0.000000000000000000, 0.000000000000000000 ) ) ;
#203 = ADVANCED_FACE ( 'NONE', ( #95, #177 ), #1, .T. ) ;
#204 = EDGE_CURVE ( 'NONE', #209, #7, #200, .T. ) ;
#205 = DATE_TIME_ROLE ( 'creation_date' ) ;
#206 = PERSON_AND_ORGANIZATION ( #120, #187 ) ;
#207 = APPLICATION_CONTEXT ( 'configuration controlled 3d designs of mechanical parts and assemblies' ) ;
#208 = CALENDAR_DATE ( 2023, 13, 2 ) ;
#209 = VERTEX_POINT ( 'NONE', #23 ) ;
#210 = EDGE_LOOP ( 'NONE', ( #13, #211 ) ) ;
#211 = ORIENTED_EDGE ( 'NONE', *, *, #194, .T. ) ;
#212 = ORIENTED_EDGE ( 'NONE', *, *, #15, .T. ) ;
#213 = CC_DESIGN_PERSON_AND_ORGANIZATION_ASSIGNMENT ( #206, #165, ( #233 ) ) ;
#214 = FACE_OUTER_BOUND ( 'NONE', #248, .T. ) ;
#215 = DIRECTION ( 'NONE',  ( -0.000000000000000000, -0.000000000000000000, -1.000000000000000000 ) ) ;
#216 = LINE ( 'NONE', #235, #37 ) ;
#217 = ADVANCED_FACE ( 'NONE', ( #2 ), #79, .T. ) ;
#218 = CARTESIAN_POINT ( 'NONE',  ( 0.000000000000000000, 0.000000000000000000, 1.199999999999999956 ) ) ;
#219 = LOCAL_TIME ( 18, 26, 50.00000000000000000, #27 ) ;
#220 = MECHANICAL_CONTEXT ( 'NONE', #207, 'mechanical' ) ;
#221 = AXIS2_PLACEMENT_3D ( 'NONE', #89, #152, #53 ) ;
#222 = PERSON_AND_ORGANIZATION ( #120, #187 ) ;
#223 = COORDINATED_UNIVERSAL_TIME_OFFSET ( 1, 0, .AHEAD. ) ;
#224 = LOCAL_TIME ( 18, 26, 50.00000000000000000, #160 ) ;
#225 = CARTESIAN_POINT ( 'NONE',  ( 0.000000000000000000, 0.000000000000000000, 200.0000000000000000 ) ) ;
#226 = CARTESIAN_POINT ( 'NONE',  ( 0.000000000000000000, 0.000000000000000000, 200.0000000000000000 ) ) ;
#227 = DIRECTION ( 'NONE',  ( 1.000000000000000000, 0.000000000000000000, 0.000000000000000000 ) ) ;
#228 = ADVANCED_FACE ( 'NONE', ( #201 ), #232, .T. ) ;
#229 = DIRECTION ( 'NONE',  ( 1.000000000000000000, 0.000000000000000000, 0.000000000000000000 ) ) ;
#230 = DIRECTION ( 'NONE',  ( -0.000000000000000000, -0.000000000000000000, -1.000000000000000000 ) ) ;
#231 = DIRECTION ( 'NONE',  ( 0.000000000000000000, 0.000000000000000000, 1.000000000000000000 ) ) ;
#232 = PLANE ( 'NONE',  #162 ) ;
#233 = PRODUCT ( 'e7c9', 'e7c9', '', ( #220 ) ) ;
#234 = DIRECTION ( 'NONE',  ( 0.000000000000000000, 0.000000000000000000, 1.000000000000000000 ) ) ;
#235 = CARTESIAN_POINT ( 'NONE',  ( -1.250000000000000000, 0.000000000000000000, 1.199999999999999956 ) ) ;
#236 = CC_DESIGN_APPROVAL ( #145, ( #137 ) ) ;
#237 = CARTESIAN_POINT ( 'NONE',  ( 0.000000000000000000, 0.000000000000000000, 1.199999999999999956 ) ) ;
#238 = ADVANCED_FACE ( 'NONE', ( #136 ), #255, .T. ) ;
#239 = APPROVAL_STATUS ( 'not_yet_approved' ) ;
#240 = CARTESIAN_POINT ( 'NONE',  ( 0.000000000000000000, 0.000000000000000000, 0.000000000000000000 ) ) ;
#241 = EDGE_CURVE ( 'NONE', #168, #32, #216, .T. ) ;
#242 = APPROVAL_ROLE ( '' ) ;
#243 = CIRCLE ( 'NONE', #115, 1.250000000000000000 ) ;
#244 = MANIFOLD_SOLID_BREP ( 'Pøidat vysunutím3', #41 ) ;
#245 = ORIENTED_EDGE ( 'NONE', *, *, #204, .T. ) ;
#246 = APPROVAL ( #239, 'NEURÈENÝ' ) ;
#247 = ORIENTED_EDGE ( 'NONE', *, *, #241, .F. ) ;
#248 = EDGE_LOOP ( 'NONE', ( #104, #245, #11, #126 ) ) ;
#249 = CC_DESIGN_APPROVAL ( #246, ( #132 ) ) ;
#250 = ORIENTED_EDGE ( 'NONE', *, *, #65, .F. ) ;
#251 = EDGE_LOOP ( 'NONE', ( #51, #193, #170, #107 ) ) ;
#252 = CIRCLE ( 'NONE', #140, 0.5999999999999999778 ) ;
#253 = DIRECTION ( 'NONE',  ( -1.000000000000000000, 0.000000000000000000, 0.000000000000000000 ) ) ;
#254 = EDGE_CURVE ( 'NONE', #168, #128, #29, .T. ) ;
#255 = CYLINDRICAL_SURFACE ( 'NONE', #149, 1.250000000000000000 ) ;
ENDSEC;
END-ISO-10303-21;
