ISO-10303-21;
HEADER;
FILE_DESCRIPTION (( 'STEP AP203' ),
    '1' );
FILE_NAME ('6358.STEP',
    '2023-02-13T15:17:07',
    ( '' ),
    ( '' ),
    'SwSTEP 2.0',
    'SolidWorks 2019',
    '' );
FILE_SCHEMA (( 'CONFIG_CONTROL_DESIGN' ));
ENDSEC;

DATA;
#1 = FACE_OUTER_BOUND ( 'NONE', #30, .T. ) ;
#2 = VECTOR ( 'NONE', #78, 1000.000000000000000 ) ;
#3 = EDGE_LOOP ( 'NONE', ( #156, #105 ) ) ;
#4 = ORIENTED_EDGE ( 'NONE', *, *, #151, .T. ) ;
#5 =( GEOMETRIC_REPRESENTATION_CONTEXT ( 3 ) GLOBAL_UNCERTAINTY_ASSIGNED_CONTEXT ( ( #17 ) ) GLOBAL_UNIT_ASSIGNED_CONTEXT ( ( #112, #131, #32 ) ) REPRESENTATION_CONTEXT ( 'NONE', 'WORKASPACE' ) );
#6 = AXIS2_PLACEMENT_3D ( 'NONE', #127, #68, #47 ) ;
#7 = EDGE_LOOP ( 'NONE', ( #161, #53, #69, #207 ) ) ;
#8 = COORDINATED_UNIVERSAL_TIME_OFFSET ( 1, 0, .AHEAD. ) ;
#9 = DIRECTION ( 'NONE',  ( 1.000000000000000000, 0.000000000000000000, 0.000000000000000000 ) ) ;
#10 = DIRECTION ( 'NONE',  ( 0.000000000000000000, 0.000000000000000000, 1.000000000000000000 ) ) ;
#11 = APPROVAL_STATUS ( 'not_yet_approved' ) ;
#12 = CC_DESIGN_PERSON_AND_ORGANIZATION_ASSIGNMENT ( #243, #101, ( #25 ) ) ;
#13 = DIRECTION ( 'NONE',  ( -1.000000000000000000, 0.000000000000000000, 0.000000000000000000 ) ) ;
#14 = LINE ( 'NONE', #186, #215 ) ;
#15 = SHAPE_DEFINITION_REPRESENTATION ( #45, #35 ) ;
#16 = DATE_TIME_ROLE ( 'classification_date' ) ;
#17 = UNCERTAINTY_MEASURE_WITH_UNIT (LENGTH_MEASURE( 1.000000000000000082E-05 ), #112, 'distance_accuracy_value', 'NONE');
#18 = FACE_OUTER_BOUND ( 'NONE', #83, .T. ) ;
#19 = CIRCLE ( 'NONE', #249, 6.000000000000000888 ) ;
#20 = DIRECTION ( 'NONE',  ( 1.000000000000000000, 0.000000000000000000, 0.000000000000000000 ) ) ;
#21 = PRODUCT ( '6358', '6358', '', ( #150 ) ) ;
#22 = MANIFOLD_SOLID_BREP ( 'Pøidat vysunutím3', #205 ) ;
#23 = FACE_OUTER_BOUND ( 'NONE', #122, .T. ) ;
#24 = ORIENTED_EDGE ( 'NONE', *, *, #211, .T. ) ;
#25 = PRODUCT_DEFINITION_FORMATION_WITH_SPECIFIED_SOURCE ( 'LIBOVOLNÝ', '', #21, .NOT_KNOWN. ) ;
#26 = DIRECTION ( 'NONE',  ( 1.000000000000000000, 0.000000000000000000, 0.000000000000000000 ) ) ;
#27 = VERTEX_POINT ( 'NONE', #240 ) ;
#28 = APPROVAL_ROLE ( '' ) ;
#29 = CARTESIAN_POINT ( 'NONE',  ( 0.000000000000000000, 0.000000000000000000, 5.000000000000000000 ) ) ;
#30 = EDGE_LOOP ( 'NONE', ( #65, #123 ) ) ;
#31 = ORIENTED_EDGE ( 'NONE', *, *, #151, .F. ) ;
#32 =( NAMED_UNIT ( * ) SI_UNIT ( $, .STERADIAN. ) SOLID_ANGLE_UNIT ( ) );
#33 = CARTESIAN_POINT ( 'NONE',  ( -3.250000000000000444, 0.000000000000000000, 250.0000000000000000 ) ) ;
#34 = PERSON_AND_ORGANIZATION ( #117, #166 ) ;
#35 = ADVANCED_BREP_SHAPE_REPRESENTATION ( '6358', ( #22, #116 ), #5 ) ;
#36 = LOCAL_TIME ( 16, 17, 7.000000000000000000, #213 ) ;
#37 = DATE_AND_TIME ( #115, #195 ) ;
#38 = AXIS2_PLACEMENT_3D ( 'NONE', #183, #208, #52 ) ;
#39 = ORIENTED_EDGE ( 'NONE', *, *, #224, .F. ) ;
#40 = ORIENTED_EDGE ( 'NONE', *, *, #252, .T. ) ;
#41 = CARTESIAN_POINT ( 'NONE',  ( -3.250000000000000444, 0.000000000000000000, 250.0000000000000000 ) ) ;
#42 = EDGE_CURVE ( 'NONE', #138, #231, #218, .T. ) ;
#43 = EDGE_LOOP ( 'NONE', ( #202, #219, #184, #31 ) ) ;
#44 = DATE_AND_TIME ( #144, #191 ) ;
#45 = PRODUCT_DEFINITION_SHAPE ( 'NONE', 'NONE',  #75 ) ;
#46 = ORIENTED_EDGE ( 'NONE', *, *, #111, .T. ) ;
#47 = DIRECTION ( 'NONE',  ( 1.000000000000000000, 0.000000000000000000, 0.000000000000000000 ) ) ;
#48 = FACE_OUTER_BOUND ( 'NONE', #43, .T. ) ;
#49 = PERSON_AND_ORGANIZATION_ROLE ( 'design_supplier' ) ;
#50 = FACE_BOUND ( 'NONE', #3, .T. ) ;
#51 = EDGE_LOOP ( 'NONE', ( #125, #39, #66, #46 ) ) ;
#52 = DIRECTION ( 'NONE',  ( 1.000000000000000000, 0.000000000000000000, -0.000000000000000000 ) ) ;
#53 = ORIENTED_EDGE ( 'NONE', *, *, #209, .T. ) ;
#54 = DATE_AND_TIME ( #192, #36 ) ;
#55 = DIRECTION ( 'NONE',  ( 0.000000000000000000, 0.000000000000000000, 1.000000000000000000 ) ) ;
#56 = VERTEX_POINT ( 'NONE', #41 ) ;
#57 = PERSON_AND_ORGANIZATION ( #117, #166 ) ;
#58 = CC_DESIGN_DATE_AND_TIME_ASSIGNMENT ( #85, #167, ( #75 ) ) ;
#59 = CIRCLE ( 'NONE', #236, 6.000000000000000888 ) ;
#60 = EDGE_CURVE ( 'NONE', #138, #27, #102, .T. ) ;
#61 = DIRECTION ( 'NONE',  ( -1.000000000000000000, 0.000000000000000000, 0.000000000000000000 ) ) ;
#62 = FACE_OUTER_BOUND ( 'NONE', #7, .T. ) ;
#63 = APPROVAL_PERSON_ORGANIZATION ( #34, #95, #28 ) ;
#64 = DIRECTION ( 'NONE',  ( 1.000000000000000000, 0.000000000000000000, -0.000000000000000000 ) ) ;
#65 = ORIENTED_EDGE ( 'NONE', *, *, #252, .F. ) ;
#66 = ORIENTED_EDGE ( 'NONE', *, *, #160, .T. ) ;
#67 = APPROVAL_DATE_TIME ( #203, #95 ) ;
#68 = DIRECTION ( 'NONE',  ( 0.000000000000000000, 0.000000000000000000, 1.000000000000000000 ) ) ;
#69 = ORIENTED_EDGE ( 'NONE', *, *, #193, .T. ) ;
#70 = PERSON_AND_ORGANIZATION_ROLE ( 'creator' ) ;
#71 = DIRECTION ( 'NONE',  ( 1.000000000000000000, 0.000000000000000000, 0.000000000000000000 ) ) ;
#72 = APPROVAL_PERSON_ORGANIZATION ( #226, #177, #106 ) ;
#73 = APPROVAL_STATUS ( 'not_yet_approved' ) ;
#74 = CARTESIAN_POINT ( 'NONE',  ( 0.000000000000000000, 0.000000000000000000, 5.000000000000000000 ) ) ;
#75 = PRODUCT_DEFINITION ( 'NEZNÁMÝ', '', #25, #196 ) ;
#76 = AXIS2_PLACEMENT_3D ( 'NONE', #255, #200, #61 ) ;
#77 = CC_DESIGN_SECURITY_CLASSIFICATION ( #169, ( #25 ) ) ;
#78 = DIRECTION ( 'NONE',  ( -0.000000000000000000, -0.000000000000000000, -1.000000000000000000 ) ) ;
#79 = PLANE ( 'NONE',  #114 ) ;
#80 = ADVANCED_FACE ( 'NONE', ( #18 ), #201, .T. ) ;
#81 = FACE_OUTER_BOUND ( 'NONE', #51, .T. ) ;
#82 = VECTOR ( 'NONE', #244, 1000.000000000000000 ) ;
#83 = EDGE_LOOP ( 'NONE', ( #140, #142 ) ) ;
#84 = DIRECTION ( 'NONE',  ( 1.000000000000000000, 0.000000000000000000, 0.000000000000000000 ) ) ;
#85 = DATE_AND_TIME ( #187, #180 ) ;
#86 = PERSON_AND_ORGANIZATION ( #117, #166 ) ;
#87 = DIRECTION ( 'NONE',  ( -0.000000000000000000, -0.000000000000000000, -1.000000000000000000 ) ) ;
#88 = CC_DESIGN_PERSON_AND_ORGANIZATION_ASSIGNMENT ( #103, #70, ( #75 ) ) ;
#89 = DIRECTION ( 'NONE',  ( 1.000000000000000000, 0.000000000000000000, 0.000000000000000000 ) ) ;
#90 = CARTESIAN_POINT ( 'NONE',  ( 0.000000000000000000, 0.000000000000000000, 0.000000000000000000 ) ) ;
#91 = LINE ( 'NONE', #170, #247 ) ;
#92 = PERSON_AND_ORGANIZATION ( #117, #166 ) ;
#93 = ADVANCED_FACE ( 'NONE', ( #62 ), #155, .T. ) ;
#94 = CARTESIAN_POINT ( 'NONE',  ( 0.000000000000000000, 0.000000000000000000, 250.0000000000000000 ) ) ;
#95 = APPROVAL ( #141, 'NEURÈENÝ' ) ;
#96 = CARTESIAN_POINT ( 'NONE',  ( 0.000000000000000000, 0.000000000000000000, 5.000000000000000000 ) ) ;
#97 = ADVANCED_FACE ( 'NONE', ( #81 ), #238, .T. ) ;
#98 = CARTESIAN_POINT ( 'NONE',  ( 0.000000000000000000, 0.000000000000000000, 5.000000000000000000 ) ) ;
#99 = AXIS2_PLACEMENT_3D ( 'NONE', #179, #248, #13 ) ;
#100 = CYLINDRICAL_SURFACE ( 'NONE', #99, 6.000000000000000888 ) ;
#101 = PERSON_AND_ORGANIZATION_ROLE ( 'creator' ) ;
#102 = LINE ( 'NONE', #182, #2 ) ;
#103 = PERSON_AND_ORGANIZATION ( #117, #166 ) ;
#104 = AXIS2_PLACEMENT_3D ( 'NONE', #96, #176, #20 ) ;
#105 = ORIENTED_EDGE ( 'NONE', *, *, #193, .F. ) ;
#106 = APPROVAL_ROLE ( '' ) ;
#107 = CARTESIAN_POINT ( 'NONE',  ( -3.250000000000000444, 0.000000000000000000, 5.000000000000000000 ) ) ;
#108 = CARTESIAN_POINT ( 'NONE',  ( -6.000000000000000888, 0.000000000000000000, 5.000000000000000000 ) ) ;
#109 = VERTEX_POINT ( 'NONE', #198 ) ;
#110 = COORDINATED_UNIVERSAL_TIME_OFFSET ( 1, 0, .AHEAD. ) ;
#111 = EDGE_CURVE ( 'NONE', #197, #109, #120, .T. ) ;
#112 =( LENGTH_UNIT ( ) NAMED_UNIT ( * ) SI_UNIT ( .MILLI., .METRE. ) );
#113 = AXIS2_PLACEMENT_3D ( 'NONE', #98, #223, #84 ) ;
#114 = AXIS2_PLACEMENT_3D ( 'NONE', #158, #239, #64 ) ;
#115 = CALENDAR_DATE ( 2023, 13, 2 ) ;
#116 = AXIS2_PLACEMENT_3D ( 'NONE', #90, #190, #71 ) ;
#117 = PERSON ( 'NEURÈENÝ', 'NEURÈENÝ', 'NEURÈENÝ', ('NEURÈENÝ'), ('NEURÈENÝ'), ('NEURÈENÝ') ) ;
#118 = CC_DESIGN_APPROVAL ( #177, ( #25 ) ) ;
#119 = ADVANCED_FACE ( 'NONE', ( #1 ), #79, .F. ) ;
#120 = CIRCLE ( 'NONE', #104, 3.250000000000000444 ) ;
#121 = VERTEX_POINT ( 'NONE', #139 ) ;
#122 = EDGE_LOOP ( 'NONE', ( #237, #241, #4, #40 ) ) ;
#123 = ORIENTED_EDGE ( 'NONE', *, *, #250, .F. ) ;
#124 = CARTESIAN_POINT ( 'NONE',  ( 6.000000000000000888, 7.347880794884120722E-16, 5.000000000000000000 ) ) ;
#125 = ORIENTED_EDGE ( 'NONE', *, *, #209, .F. ) ;
#126 = CC_DESIGN_APPROVAL ( #134, ( #169 ) ) ;
#127 = CARTESIAN_POINT ( 'NONE',  ( 0.000000000000000000, 0.000000000000000000, 250.0000000000000000 ) ) ;
#128 = DIRECTION ( 'NONE',  ( -1.000000000000000000, 0.000000000000000000, 0.000000000000000000 ) ) ;
#129 = VERTEX_POINT ( 'NONE', #221 ) ;
#130 = ORIENTED_EDGE ( 'NONE', *, *, #42, .T. ) ;
#131 =( NAMED_UNIT ( * ) PLANE_ANGLE_UNIT ( ) SI_UNIT ( $, .RADIAN. ) );
#132 = EDGE_LOOP ( 'NONE', ( #24, #130 ) ) ;
#133 = DIRECTION ( 'NONE',  ( 1.000000000000000000, 0.000000000000000000, 0.000000000000000000 ) ) ;
#134 = APPROVAL ( #73, 'NEURÈENÝ' ) ;
#135 = APPROVAL_ROLE ( '' ) ;
#136 = LOCAL_TIME ( 16, 17, 7.000000000000000000, #110 ) ;
#137 = CARTESIAN_POINT ( 'NONE',  ( 0.000000000000000000, 0.000000000000000000, 250.0000000000000000 ) ) ;
#138 = VERTEX_POINT ( 'NONE', #124 ) ;
#139 = CARTESIAN_POINT ( 'NONE',  ( 3.250000000000000444, 3.980102097228898231E-16, 250.0000000000000000 ) ) ;
#140 = ORIENTED_EDGE ( 'NONE', *, *, #224, .T. ) ;
#141 = APPROVAL_STATUS ( 'not_yet_approved' ) ;
#142 = ORIENTED_EDGE ( 'NONE', *, *, #234, .T. ) ;
#143 = CARTESIAN_POINT ( 'NONE',  ( 0.000000000000000000, 0.000000000000000000, 0.000000000000000000 ) ) ;
#144 = CALENDAR_DATE ( 2023, 13, 2 ) ;
#145 = DIRECTION ( 'NONE',  ( 0.000000000000000000, 0.000000000000000000, 1.000000000000000000 ) ) ;
#146 = AXIS2_PLACEMENT_3D ( 'NONE', #137, #178, #220 ) ;
#147 = DIRECTION ( 'NONE',  ( 0.000000000000000000, 0.000000000000000000, 1.000000000000000000 ) ) ;
#148 = ADVANCED_FACE ( 'NONE', ( #23 ), #100, .T. ) ;
#149 = AXIS2_PLACEMENT_3D ( 'NONE', #168, #210, #128 ) ;
#150 = MECHANICAL_CONTEXT ( 'NONE', #157, 'mechanical' ) ;
#151 = EDGE_CURVE ( 'NONE', #231, #129, #14, .T. ) ;
#152 = PERSON_AND_ORGANIZATION_ROLE ( 'design_owner' ) ;
#153 = PRODUCT_RELATED_PRODUCT_CATEGORY ( 'detail', '', ( #21 ) ) ;
#154 = APPLICATION_CONTEXT ( 'configuration controlled 3d designs of mechanical parts and assemblies' ) ;
#155 = CYLINDRICAL_SURFACE ( 'NONE', #76, 3.250000000000000444 ) ;
#156 = ORIENTED_EDGE ( 'NONE', *, *, #111, .F. ) ;
#157 = APPLICATION_CONTEXT ( 'configuration controlled 3d designs of mechanical parts and assemblies' ) ;
#158 = CARTESIAN_POINT ( 'NONE',  ( 0.000000000000000000, 0.000000000000000000, 0.000000000000000000 ) ) ;
#159 = AXIS2_PLACEMENT_3D ( 'NONE', #225, #10, #133 ) ;
#160 = EDGE_CURVE ( 'NONE', #56, #197, #232, .T. ) ;
#161 = ORIENTED_EDGE ( 'NONE', *, *, #234, .F. ) ;
#162 = CALENDAR_DATE ( 2023, 13, 2 ) ;
#163 = DIRECTION ( 'NONE',  ( 0.000000000000000000, 0.000000000000000000, 1.000000000000000000 ) ) ;
#164 = ADVANCED_FACE ( 'NONE', ( #50, #188 ), #242, .T. ) ;
#165 = DIRECTION ( 'NONE',  ( -0.000000000000000000, -0.000000000000000000, -1.000000000000000000 ) ) ;
#166 = ORGANIZATION ( 'NEURÈENÝ', 'NEURÈENÝ', '' ) ;
#167 = DATE_TIME_ROLE ( 'creation_date' ) ;
#168 = CARTESIAN_POINT ( 'NONE',  ( 0.000000000000000000, 0.000000000000000000, 5.000000000000000000 ) ) ;
#169 = SECURITY_CLASSIFICATION ( '', '', #228 ) ;
#170 = CARTESIAN_POINT ( 'NONE',  ( 3.250000000000000444, 3.980102097228898231E-16, 250.0000000000000000 ) ) ;
#171 = PERSON_AND_ORGANIZATION_ROLE ( 'classification_officer' ) ;
#172 = CC_DESIGN_DATE_AND_TIME_ASSIGNMENT ( #54, #16, ( #169 ) ) ;
#173 = CIRCLE ( 'NONE', #6, 3.250000000000000444 ) ;
#174 = CC_DESIGN_PERSON_AND_ORGANIZATION_ASSIGNMENT ( #92, #171, ( #169 ) ) ;
#175 = DIRECTION ( 'NONE',  ( 1.000000000000000000, 0.000000000000000000, -0.000000000000000000 ) ) ;
#176 = DIRECTION ( 'NONE',  ( 0.000000000000000000, 0.000000000000000000, 1.000000000000000000 ) ) ;
#177 = APPROVAL ( #11, 'NEURÈENÝ' ) ;
#178 = DIRECTION ( 'NONE',  ( -0.000000000000000000, -0.000000000000000000, -1.000000000000000000 ) ) ;
#179 = CARTESIAN_POINT ( 'NONE',  ( 0.000000000000000000, 0.000000000000000000, 5.000000000000000000 ) ) ;
#180 = LOCAL_TIME ( 16, 17, 7.000000000000000000, #8 ) ;
#181 = AXIS2_PLACEMENT_3D ( 'NONE', #230, #145, #26 ) ;
#182 = CARTESIAN_POINT ( 'NONE',  ( 6.000000000000000888, 7.347880794884120722E-16, 5.000000000000000000 ) ) ;
#183 = CARTESIAN_POINT ( 'NONE',  ( 0.000000000000000000, 0.000000000000000000, 5.000000000000000000 ) ) ;
#184 = ORIENTED_EDGE ( 'NONE', *, *, #250, .T. ) ;
#185 = APPROVAL_DATE_TIME ( #44, #177 ) ;
#186 = CARTESIAN_POINT ( 'NONE',  ( -6.000000000000000888, 0.000000000000000000, 5.000000000000000000 ) ) ;
#187 = CALENDAR_DATE ( 2023, 13, 2 ) ;
#188 = FACE_OUTER_BOUND ( 'NONE', #132, .T. ) ;
#189 = CC_DESIGN_PERSON_AND_ORGANIZATION_ASSIGNMENT ( #57, #152, ( #21 ) ) ;
#190 = DIRECTION ( 'NONE',  ( 0.000000000000000000, 0.000000000000000000, 1.000000000000000000 ) ) ;
#191 = LOCAL_TIME ( 16, 17, 7.000000000000000000, #245 ) ;
#192 = CALENDAR_DATE ( 2023, 13, 2 ) ;
#193 = EDGE_CURVE ( 'NONE', #109, #197, #233, .T. ) ;
#194 = AXIS2_PLACEMENT_3D ( 'NONE', #94, #163, #175 ) ;
#195 = LOCAL_TIME ( 16, 17, 7.000000000000000000, #235 ) ;
#196 = DESIGN_CONTEXT ( 'detailed design', #154, 'design' ) ;
#197 = VERTEX_POINT ( 'NONE', #107 ) ;
#198 = CARTESIAN_POINT ( 'NONE',  ( 3.250000000000000444, 3.980102097228898231E-16, 5.000000000000000000 ) ) ;
#199 = AXIS2_PLACEMENT_3D ( 'NONE', #29, #55, #9 ) ;
#200 = DIRECTION ( 'NONE',  ( -0.000000000000000000, -0.000000000000000000, -1.000000000000000000 ) ) ;
#201 = PLANE ( 'NONE',  #194 ) ;
#202 = ORIENTED_EDGE ( 'NONE', *, *, #42, .F. ) ;
#203 = DATE_AND_TIME ( #162, #136 ) ;
#204 = DIRECTION ( 'NONE',  ( 1.000000000000000000, 0.000000000000000000, 0.000000000000000000 ) ) ;
#205 = CLOSED_SHELL ( 'NONE', ( #93, #253, #148, #164, #119, #97, #80 ) ) ;
#206 = APPROVAL_PERSON_ORGANIZATION ( #251, #134, #135 ) ;
#207 = ORIENTED_EDGE ( 'NONE', *, *, #160, .F. ) ;
#208 = DIRECTION ( 'NONE',  ( 0.000000000000000000, 0.000000000000000000, 1.000000000000000000 ) ) ;
#209 = EDGE_CURVE ( 'NONE', #121, #109, #91, .T. ) ;
#210 = DIRECTION ( 'NONE',  ( -0.000000000000000000, -0.000000000000000000, -1.000000000000000000 ) ) ;
#211 = EDGE_CURVE ( 'NONE', #231, #138, #19, .T. ) ;
#212 = APPLICATION_PROTOCOL_DEFINITION ( 'international standard', 'config_control_design', 1994, #154 ) ;
#213 = COORDINATED_UNIVERSAL_TIME_OFFSET ( 1, 0, .AHEAD. ) ;
#214 = CIRCLE ( 'NONE', #181, 6.000000000000000888 ) ;
#215 = VECTOR ( 'NONE', #165, 1000.000000000000000 ) ;
#216 = APPROVAL_DATE_TIME ( #37, #134 ) ;
#217 = CIRCLE ( 'NONE', #159, 3.250000000000000444 ) ;
#218 = CIRCLE ( 'NONE', #113, 6.000000000000000888 ) ;
#219 = ORIENTED_EDGE ( 'NONE', *, *, #60, .T. ) ;
#220 = DIRECTION ( 'NONE',  ( -1.000000000000000000, 0.000000000000000000, 0.000000000000000000 ) ) ;
#221 = CARTESIAN_POINT ( 'NONE',  ( -6.000000000000000888, 0.000000000000000000, 0.000000000000000000 ) ) ;
#222 = CC_DESIGN_PERSON_AND_ORGANIZATION_ASSIGNMENT ( #86, #49, ( #25 ) ) ;
#223 = DIRECTION ( 'NONE',  ( 0.000000000000000000, 0.000000000000000000, 1.000000000000000000 ) ) ;
#224 = EDGE_CURVE ( 'NONE', #56, #121, #217, .T. ) ;
#225 = CARTESIAN_POINT ( 'NONE',  ( 0.000000000000000000, 0.000000000000000000, 250.0000000000000000 ) ) ;
#226 = PERSON_AND_ORGANIZATION ( #117, #166 ) ;
#227 = CYLINDRICAL_SURFACE ( 'NONE', #149, 6.000000000000000888 ) ;
#228 = SECURITY_CLASSIFICATION_LEVEL ( 'unclassified' ) ;
#229 = DIRECTION ( 'NONE',  ( 0.000000000000000000, 0.000000000000000000, 1.000000000000000000 ) ) ;
#230 = CARTESIAN_POINT ( 'NONE',  ( 0.000000000000000000, 0.000000000000000000, 0.000000000000000000 ) ) ;
#231 = VERTEX_POINT ( 'NONE', #108 ) ;
#232 = LINE ( 'NONE', #33, #82 ) ;
#233 = CIRCLE ( 'NONE', #199, 3.250000000000000444 ) ;
#234 = EDGE_CURVE ( 'NONE', #121, #56, #173, .T. ) ;
#235 = COORDINATED_UNIVERSAL_TIME_OFFSET ( 1, 0, .AHEAD. ) ;
#236 = AXIS2_PLACEMENT_3D ( 'NONE', #143, #229, #89 ) ;
#237 = ORIENTED_EDGE ( 'NONE', *, *, #60, .F. ) ;
#238 = CYLINDRICAL_SURFACE ( 'NONE', #146, 3.250000000000000444 ) ;
#239 = DIRECTION ( 'NONE',  ( 0.000000000000000000, 0.000000000000000000, 1.000000000000000000 ) ) ;
#240 = CARTESIAN_POINT ( 'NONE',  ( 6.000000000000000888, 7.347880794884120722E-16, 0.000000000000000000 ) ) ;
#241 = ORIENTED_EDGE ( 'NONE', *, *, #211, .F. ) ;
#242 = PLANE ( 'NONE',  #38 ) ;
#243 = PERSON_AND_ORGANIZATION ( #117, #166 ) ;
#244 = DIRECTION ( 'NONE',  ( -0.000000000000000000, -0.000000000000000000, -1.000000000000000000 ) ) ;
#245 = COORDINATED_UNIVERSAL_TIME_OFFSET ( 1, 0, .AHEAD. ) ;
#246 = APPLICATION_PROTOCOL_DEFINITION ( 'international standard', 'config_control_design', 1994, #157 ) ;
#247 = VECTOR ( 'NONE', #87, 1000.000000000000000 ) ;
#248 = DIRECTION ( 'NONE',  ( -0.000000000000000000, -0.000000000000000000, -1.000000000000000000 ) ) ;
#249 = AXIS2_PLACEMENT_3D ( 'NONE', #74, #147, #204 ) ;
#250 = EDGE_CURVE ( 'NONE', #27, #129, #214, .T. ) ;
#251 = PERSON_AND_ORGANIZATION ( #117, #166 ) ;
#252 = EDGE_CURVE ( 'NONE', #129, #27, #59, .T. ) ;
#253 = ADVANCED_FACE ( 'NONE', ( #48 ), #227, .T. ) ;
#254 = CC_DESIGN_APPROVAL ( #95, ( #75 ) ) ;
#255 = CARTESIAN_POINT ( 'NONE',  ( 0.000000000000000000, 0.000000000000000000, 250.0000000000000000 ) ) ;
ENDSEC;
END-ISO-10303-21;
