ISO-10303-21;
HEADER;
FILE_DESCRIPTION (( 'STEP AP203' ),
    '1' );
FILE_NAME ('4b73.STEP',
    '2023-02-13T17:28:47',
    ( '' ),
    ( '' ),
    'SwSTEP 2.0',
    'SolidWorks 2019',
    '' );
FILE_SCHEMA (( 'CONFIG_CONTROL_DESIGN' ));
ENDSEC;

DATA;
#1 = AXIS2_PLACEMENT_3D ( 'NONE', #96, #202, #98 ) ;
#2 = CC_DESIGN_SECURITY_CLASSIFICATION ( #126, ( #174 ) ) ;
#3 = ORIENTED_EDGE ( 'NONE', *, *, #175, .F. ) ;
#4 = CARTESIAN_POINT ( 'NONE',  ( 0.5000000000000000000, 6.123233995736766036E-17, 100.0000000000000000 ) ) ;
#5 = PLANE ( 'NONE',  #201 ) ;
#6 = ORIENTED_EDGE ( 'NONE', *, *, #155, .T. ) ;
#7 = CARTESIAN_POINT ( 'NONE',  ( -1.250000000000000000, 0.000000000000000000, 1.199999999999999956 ) ) ;
#8 = ORIENTED_EDGE ( 'NONE', *, *, #227, .T. ) ;
#9 = LINE ( 'NONE', #81, #233 ) ;
#10 = CC_DESIGN_PERSON_AND_ORGANIZATION_ASSIGNMENT ( #87, #250, ( #174 ) ) ;
#11 = ORIENTED_EDGE ( 'NONE', *, *, #227, .F. ) ;
#12 = CALENDAR_DATE ( 2023, 13, 2 ) ;
#13 = CIRCLE ( 'NONE', #78, 0.5000000000000000000 ) ;
#14 = LOCAL_TIME ( 18, 28, 47.00000000000000000, #35 ) ;
#15 = VECTOR ( 'NONE', #207, 1000.000000000000000 ) ;
#16 = APPROVAL_DATE_TIME ( #33, #131 ) ;
#17 = CALENDAR_DATE ( 2023, 13, 2 ) ;
#18 = DATE_AND_TIME ( #12, #14 ) ;
#19 = CIRCLE ( 'NONE', #36, 0.5000000000000000000 ) ;
#20 = EDGE_LOOP ( 'NONE', ( #29, #208 ) ) ;
#21 = AXIS2_PLACEMENT_3D ( 'NONE', #120, #205, #242 ) ;
#22 = CARTESIAN_POINT ( 'NONE',  ( 0.000000000000000000, 0.000000000000000000, 100.0000000000000000 ) ) ;
#23 = ADVANCED_FACE ( 'NONE', ( #221 ), #203, .T. ) ;
#24 = CARTESIAN_POINT ( 'NONE',  ( 1.250000000000000000, 1.530808498934191571E-16, 1.199999999999999956 ) ) ;
#25 = DIRECTION ( 'NONE',  ( -1.000000000000000000, 0.000000000000000000, 0.000000000000000000 ) ) ;
#26 = LOCAL_TIME ( 18, 28, 47.00000000000000000, #204 ) ;
#27 = PRODUCT_DEFINITION ( 'NEZNÁMÝ', '', #174, #178 ) ;
#28 = CARTESIAN_POINT ( 'NONE',  ( -0.5000000000000000000, 0.000000000000000000, 100.0000000000000000 ) ) ;
#29 = ORIENTED_EDGE ( 'NONE', *, *, #149, .F. ) ;
#30 = ORIENTED_EDGE ( 'NONE', *, *, #175, .T. ) ;
#31 = EDGE_CURVE ( 'NONE', #118, #226, #123, .T. ) ;
#32 = DIRECTION ( 'NONE',  ( 0.000000000000000000, 0.000000000000000000, 1.000000000000000000 ) ) ;
#33 = DATE_AND_TIME ( #212, #100 ) ;
#34 = PERSON_AND_ORGANIZATION ( #86, #217 ) ;
#35 = COORDINATED_UNIVERSAL_TIME_OFFSET ( 1, 0, .AHEAD. ) ;
#36 = AXIS2_PLACEMENT_3D ( 'NONE', #170, #32, #245 ) ;
#37 = DIRECTION ( 'NONE',  ( -0.000000000000000000, -0.000000000000000000, -1.000000000000000000 ) ) ;
#38 = DIRECTION ( 'NONE',  ( -1.000000000000000000, 0.000000000000000000, 0.000000000000000000 ) ) ;
#39 = AXIS2_PLACEMENT_3D ( 'NONE', #159, #238, #115 ) ;
#40 = APPROVAL_STATUS ( 'not_yet_approved' ) ;
#41 = CARTESIAN_POINT ( 'NONE',  ( 1.250000000000000000, 1.530808498934191571E-16, 1.199999999999999956 ) ) ;
#42 = EDGE_LOOP ( 'NONE', ( #247, #30, #8, #82 ) ) ;
#43 = DIRECTION ( 'NONE',  ( 0.000000000000000000, 0.000000000000000000, 1.000000000000000000 ) ) ;
#44 = ORIENTED_EDGE ( 'NONE', *, *, #149, .T. ) ;
#45 = CYLINDRICAL_SURFACE ( 'NONE', #179, 1.250000000000000000 ) ;
#46 = ORIENTED_EDGE ( 'NONE', *, *, #70, .F. ) ;
#47 = PRODUCT_RELATED_PRODUCT_CATEGORY ( 'detail', '', ( #102 ) ) ;
#48 = PLANE ( 'NONE',  #184 ) ;
#49 = APPLICATION_CONTEXT ( 'configuration controlled 3d designs of mechanical parts and assemblies' ) ;
#50 = FACE_OUTER_BOUND ( 'NONE', #171, .T. ) ;
#51 = LINE ( 'NONE', #196, #15 ) ;
#52 = EDGE_CURVE ( 'NONE', #118, #244, #163, .T. ) ;
#53 = COORDINATED_UNIVERSAL_TIME_OFFSET ( 1, 0, .AHEAD. ) ;
#54 = PERSON_AND_ORGANIZATION_ROLE ( 'design_supplier' ) ;
#55 = APPLICATION_PROTOCOL_DEFINITION ( 'international standard', 'config_control_design', 1994, #49 ) ;
#56 = APPROVAL_STATUS ( 'not_yet_approved' ) ;
#57 = CC_DESIGN_DATE_AND_TIME_ASSIGNMENT ( #180, #254, ( #27 ) ) ;
#58 = PERSON_AND_ORGANIZATION ( #86, #217 ) ;
#59 = CARTESIAN_POINT ( 'NONE',  ( 0.000000000000000000, 0.000000000000000000, 100.0000000000000000 ) ) ;
#60 = EDGE_LOOP ( 'NONE', ( #105, #243 ) ) ;
#61 = VERTEX_POINT ( 'NONE', #183 ) ;
#62 = CC_DESIGN_APPROVAL ( #151, ( #126 ) ) ;
#63 = DIRECTION ( 'NONE',  ( -1.000000000000000000, 0.000000000000000000, 0.000000000000000000 ) ) ;
#64 = DATE_TIME_ROLE ( 'classification_date' ) ;
#65 = FACE_OUTER_BOUND ( 'NONE', #69, .T. ) ;
#66 = VERTEX_POINT ( 'NONE', #241 ) ;
#67 = EDGE_LOOP ( 'NONE', ( #124, #11 ) ) ;
#68 = CARTESIAN_POINT ( 'NONE',  ( 1.250000000000000000, 1.530808498934191571E-16, 0.000000000000000000 ) ) ;
#69 = EDGE_LOOP ( 'NONE', ( #109, #46, #75, #44 ) ) ;
#70 = EDGE_CURVE ( 'NONE', #226, #118, #140, .T. ) ;
#71 = CARTESIAN_POINT ( 'NONE',  ( 0.000000000000000000, 0.000000000000000000, 100.0000000000000000 ) ) ;
#72 = CC_DESIGN_PERSON_AND_ORGANIZATION_ASSIGNMENT ( #249, #90, ( #27 ) ) ;
#73 = ADVANCED_FACE ( 'NONE', ( #224 ), #45, .T. ) ;
#74 = PERSON_AND_ORGANIZATION ( #86, #217 ) ;
#75 = ORIENTED_EDGE ( 'NONE', *, *, #88, .T. ) ;
#76 = DIRECTION ( 'NONE',  ( 1.000000000000000000, 0.000000000000000000, 0.000000000000000000 ) ) ;
#77 = PERSON_AND_ORGANIZATION ( #86, #217 ) ;
#78 = AXIS2_PLACEMENT_3D ( 'NONE', #22, #94, #186 ) ;
#79 = CARTESIAN_POINT ( 'NONE',  ( 0.000000000000000000, 0.000000000000000000, 100.0000000000000000 ) ) ;
#80 = DIRECTION ( 'NONE',  ( 1.000000000000000000, 0.000000000000000000, 0.000000000000000000 ) ) ;
#81 = CARTESIAN_POINT ( 'NONE',  ( -0.5000000000000000000, 0.000000000000000000, 100.0000000000000000 ) ) ;
#82 = ORIENTED_EDGE ( 'NONE', *, *, #185, .F. ) ;
#83 = VECTOR ( 'NONE', #200, 1000.000000000000000 ) ;
#84 = VERTEX_POINT ( 'NONE', #223 ) ;
#85 = ORIENTED_EDGE ( 'NONE', *, *, #52, .T. ) ;
#86 = PERSON ( 'NEURÈENÝ', 'NEURÈENÝ', 'NEURÈENÝ', ('NEURÈENÝ'), ('NEURÈENÝ'), ('NEURÈENÝ') ) ;
#87 = PERSON_AND_ORGANIZATION ( #86, #217 ) ;
#88 = EDGE_CURVE ( 'NONE', #226, #61, #137, .T. ) ;
#89 = DATE_AND_TIME ( #17, #108 ) ;
#90 = PERSON_AND_ORGANIZATION_ROLE ( 'creator' ) ;
#91 =( NAMED_UNIT ( * ) PLANE_ANGLE_UNIT ( ) SI_UNIT ( $, .RADIAN. ) );
#92 = DIRECTION ( 'NONE',  ( 0.000000000000000000, 0.000000000000000000, 1.000000000000000000 ) ) ;
#93 = APPROVAL_PERSON_ORGANIZATION ( #77, #131, #176 ) ;
#94 = DIRECTION ( 'NONE',  ( 0.000000000000000000, 0.000000000000000000, 1.000000000000000000 ) ) ;
#95 = EDGE_CURVE ( 'NONE', #169, #164, #99, .T. ) ;
#96 = CARTESIAN_POINT ( 'NONE',  ( 0.000000000000000000, 0.000000000000000000, 1.199999999999999956 ) ) ;
#97 = SHAPE_DEFINITION_REPRESENTATION ( #127, #194 ) ;
#98 = DIRECTION ( 'NONE',  ( 1.000000000000000000, 0.000000000000000000, 0.000000000000000000 ) ) ;
#99 = CIRCLE ( 'NONE', #145, 0.5000000000000000000 ) ;
#100 = LOCAL_TIME ( 18, 28, 47.00000000000000000, #53 ) ;
#101 = PLANE ( 'NONE',  #135 ) ;
#102 = PRODUCT ( '4b73', '4b73', '', ( #129 ) ) ;
#103 = CARTESIAN_POINT ( 'NONE',  ( 0.000000000000000000, 0.000000000000000000, 0.000000000000000000 ) ) ;
#104 = DIRECTION ( 'NONE',  ( 1.000000000000000000, 0.000000000000000000, 0.000000000000000000 ) ) ;
#105 = ORIENTED_EDGE ( 'NONE', *, *, #70, .T. ) ;
#106 =( NAMED_UNIT ( * ) SI_UNIT ( $, .STERADIAN. ) SOLID_ANGLE_UNIT ( ) );
#107 = AXIS2_PLACEMENT_3D ( 'NONE', #59, #114, #38 ) ;
#108 = LOCAL_TIME ( 18, 28, 47.00000000000000000, #198 ) ;
#109 = ORIENTED_EDGE ( 'NONE', *, *, #52, .F. ) ;
#110 = PERSON_AND_ORGANIZATION_ROLE ( 'classification_officer' ) ;
#111 = PERSON_AND_ORGANIZATION ( #86, #217 ) ;
#112 = CC_DESIGN_PERSON_AND_ORGANIZATION_ASSIGNMENT ( #34, #110, ( #126 ) ) ;
#113 = CALENDAR_DATE ( 2023, 13, 2 ) ;
#114 = DIRECTION ( 'NONE',  ( -0.000000000000000000, -0.000000000000000000, -1.000000000000000000 ) ) ;
#115 = DIRECTION ( 'NONE',  ( 1.000000000000000000, 0.000000000000000000, 0.000000000000000000 ) ) ;
#116 = CIRCLE ( 'NONE', #39, 1.250000000000000000 ) ;
#117 = LOCAL_TIME ( 18, 28, 47.00000000000000000, #152 ) ;
#118 = VERTEX_POINT ( 'NONE', #41 ) ;
#119 = ORIENTED_EDGE ( 'NONE', *, *, #95, .T. ) ;
#120 = CARTESIAN_POINT ( 'NONE',  ( 0.000000000000000000, 0.000000000000000000, 1.199999999999999956 ) ) ;
#121 = APPROVAL ( #56, 'NEURÈENÝ' ) ;
#122 = CARTESIAN_POINT ( 'NONE',  ( 0.000000000000000000, 0.000000000000000000, 1.199999999999999956 ) ) ;
#123 = CIRCLE ( 'NONE', #1, 1.250000000000000000 ) ;
#124 = ORIENTED_EDGE ( 'NONE', *, *, #125, .F. ) ;
#125 = EDGE_CURVE ( 'NONE', #66, #84, #130, .T. ) ;
#126 = SECURITY_CLASSIFICATION ( '', '', #132 ) ;
#127 = PRODUCT_DEFINITION_SHAPE ( 'NONE', 'NONE',  #27 ) ;
#128 = DIRECTION ( 'NONE',  ( -0.000000000000000000, -0.000000000000000000, -1.000000000000000000 ) ) ;
#129 = MECHANICAL_CONTEXT ( 'NONE', #49, 'mechanical' ) ;
#130 = CIRCLE ( 'NONE', #21, 0.5000000000000000000 ) ;
#131 = APPROVAL ( #231, 'NEURÈENÝ' ) ;
#132 = SECURITY_CLASSIFICATION_LEVEL ( 'unclassified' ) ;
#133 = CIRCLE ( 'NONE', #209, 1.250000000000000000 ) ;
#134 = CC_DESIGN_APPROVAL ( #131, ( #174 ) ) ;
#135 = AXIS2_PLACEMENT_3D ( 'NONE', #103, #211, #192 ) ;
#136 = APPROVAL_ROLE ( '' ) ;
#137 = LINE ( 'NONE', #142, #83 ) ;
#138 = FACE_OUTER_BOUND ( 'NONE', #60, .T. ) ;
#139 = DIRECTION ( 'NONE',  ( 0.000000000000000000, 0.000000000000000000, 1.000000000000000000 ) ) ;
#140 = CIRCLE ( 'NONE', #216, 1.250000000000000000 ) ;
#141 = CC_DESIGN_DATE_AND_TIME_ASSIGNMENT ( #89, #64, ( #126 ) ) ;
#142 = CARTESIAN_POINT ( 'NONE',  ( -1.250000000000000000, 0.000000000000000000, 1.199999999999999956 ) ) ;
#143 = CYLINDRICAL_SURFACE ( 'NONE', #154, 1.250000000000000000 ) ;
#144 = ADVANCED_FACE ( 'NONE', ( #189, #138 ), #5, .T. ) ;
#145 = AXIS2_PLACEMENT_3D ( 'NONE', #79, #43, #219 ) ;
#146 = ORIENTED_EDGE ( 'NONE', *, *, #95, .F. ) ;
#147 = ADVANCED_FACE ( 'NONE', ( #65 ), #143, .T. ) ;
#148 = DIRECTION ( 'NONE',  ( -0.000000000000000000, -0.000000000000000000, -1.000000000000000000 ) ) ;
#149 = EDGE_CURVE ( 'NONE', #61, #244, #116, .T. ) ;
#150 = FACE_OUTER_BOUND ( 'NONE', #20, .T. ) ;
#151 = APPROVAL ( #40, 'NEURÈENÝ' ) ;
#152 = COORDINATED_UNIVERSAL_TIME_OFFSET ( 1, 0, .AHEAD. ) ;
#153 =( LENGTH_UNIT ( ) NAMED_UNIT ( * ) SI_UNIT ( .MILLI., .METRE. ) );
#154 = AXIS2_PLACEMENT_3D ( 'NONE', #206, #37, #25 ) ;
#155 = EDGE_CURVE ( 'NONE', #164, #169, #13, .T. ) ;
#156 = DIRECTION ( 'NONE',  ( -0.000000000000000000, -0.000000000000000000, -1.000000000000000000 ) ) ;
#157 = APPROVAL_PERSON_ORGANIZATION ( #220, #151, #136 ) ;
#158 = CC_DESIGN_APPROVAL ( #121, ( #27 ) ) ;
#159 = CARTESIAN_POINT ( 'NONE',  ( 0.000000000000000000, 0.000000000000000000, 0.000000000000000000 ) ) ;
#160 = APPROVAL_DATE_TIME ( #165, #151 ) ;
#161 = CARTESIAN_POINT ( 'NONE',  ( 0.000000000000000000, 0.000000000000000000, 0.000000000000000000 ) ) ;
#162 = CC_DESIGN_PERSON_AND_ORGANIZATION_ASSIGNMENT ( #74, #54, ( #174 ) ) ;
#163 = LINE ( 'NONE', #24, #190 ) ;
#164 = VERTEX_POINT ( 'NONE', #4 ) ;
#165 = DATE_AND_TIME ( #113, #26 ) ;
#166 = DIRECTION ( 'NONE',  ( 1.000000000000000000, 0.000000000000000000, -0.000000000000000000 ) ) ;
#167 = ORIENTED_EDGE ( 'NONE', *, *, #88, .F. ) ;
#168 = EDGE_CURVE ( 'NONE', #244, #61, #133, .T. ) ;
#169 = VERTEX_POINT ( 'NONE', #28 ) ;
#170 = CARTESIAN_POINT ( 'NONE',  ( 0.000000000000000000, 0.000000000000000000, 1.199999999999999956 ) ) ;
#171 = EDGE_LOOP ( 'NONE', ( #119, #6 ) ) ;
#172 = ORIENTED_EDGE ( 'NONE', *, *, #31, .F. ) ;
#173 = APPROVAL_DATE_TIME ( #18, #121 ) ;
#174 = PRODUCT_DEFINITION_FORMATION_WITH_SPECIFIED_SOURCE ( 'LIBOVOLNÝ', '', #102, .NOT_KNOWN. ) ;
#175 = EDGE_CURVE ( 'NONE', #164, #84, #51, .T. ) ;
#176 = APPROVAL_ROLE ( '' ) ;
#177 = ORIENTED_EDGE ( 'NONE', *, *, #168, .T. ) ;
#178 = DESIGN_CONTEXT ( 'detailed design', #187, 'design' ) ;
#179 = AXIS2_PLACEMENT_3D ( 'NONE', #122, #156, #63 ) ;
#180 = DATE_AND_TIME ( #197, #117 ) ;
#181 = CARTESIAN_POINT ( 'NONE',  ( 0.000000000000000000, 0.000000000000000000, 0.000000000000000000 ) ) ;
#182 = EDGE_LOOP ( 'NONE', ( #3, #146, #193, #251 ) ) ;
#183 = CARTESIAN_POINT ( 'NONE',  ( -1.250000000000000000, 0.000000000000000000, 0.000000000000000000 ) ) ;
#184 = AXIS2_PLACEMENT_3D ( 'NONE', #71, #230, #235 ) ;
#185 = EDGE_CURVE ( 'NONE', #169, #66, #9, .T. ) ;
#186 = DIRECTION ( 'NONE',  ( 1.000000000000000000, 0.000000000000000000, 0.000000000000000000 ) ) ;
#187 = APPLICATION_CONTEXT ( 'configuration controlled 3d designs of mechanical parts and assemblies' ) ;
#188 = DIRECTION ( 'NONE',  ( -0.000000000000000000, -0.000000000000000000, -1.000000000000000000 ) ) ;
#189 = FACE_BOUND ( 'NONE', #67, .T. ) ;
#190 = VECTOR ( 'NONE', #188, 1000.000000000000000 ) ;
#191 = AXIS2_PLACEMENT_3D ( 'NONE', #228, #128, #210 ) ;
#192 = DIRECTION ( 'NONE',  ( 1.000000000000000000, 0.000000000000000000, -0.000000000000000000 ) ) ;
#193 = ORIENTED_EDGE ( 'NONE', *, *, #185, .T. ) ;
#194 = ADVANCED_BREP_SHAPE_REPRESENTATION ( '4b73', ( #239, #229 ), #246 ) ;
#195 = CYLINDRICAL_SURFACE ( 'NONE', #191, 0.5000000000000000000 ) ;
#196 = CARTESIAN_POINT ( 'NONE',  ( 0.5000000000000000000, 6.123233995736766036E-17, 100.0000000000000000 ) ) ;
#197 = CALENDAR_DATE ( 2023, 13, 2 ) ;
#198 = COORDINATED_UNIVERSAL_TIME_OFFSET ( 1, 0, .AHEAD. ) ;
#199 = ADVANCED_FACE ( 'NONE', ( #150 ), #101, .F. ) ;
#200 = DIRECTION ( 'NONE',  ( -0.000000000000000000, -0.000000000000000000, -1.000000000000000000 ) ) ;
#201 = AXIS2_PLACEMENT_3D ( 'NONE', #236, #92, #166 ) ;
#202 = DIRECTION ( 'NONE',  ( 0.000000000000000000, 0.000000000000000000, 1.000000000000000000 ) ) ;
#203 = CYLINDRICAL_SURFACE ( 'NONE', #107, 0.5000000000000000000 ) ;
#204 = COORDINATED_UNIVERSAL_TIME_OFFSET ( 1, 0, .AHEAD. ) ;
#205 = DIRECTION ( 'NONE',  ( 0.000000000000000000, 0.000000000000000000, 1.000000000000000000 ) ) ;
#206 = CARTESIAN_POINT ( 'NONE',  ( 0.000000000000000000, 0.000000000000000000, 1.199999999999999956 ) ) ;
#207 = DIRECTION ( 'NONE',  ( -0.000000000000000000, -0.000000000000000000, -1.000000000000000000 ) ) ;
#208 = ORIENTED_EDGE ( 'NONE', *, *, #168, .F. ) ;
#209 = AXIS2_PLACEMENT_3D ( 'NONE', #161, #240, #104 ) ;
#210 = DIRECTION ( 'NONE',  ( -1.000000000000000000, 0.000000000000000000, 0.000000000000000000 ) ) ;
#211 = DIRECTION ( 'NONE',  ( 0.000000000000000000, 0.000000000000000000, 1.000000000000000000 ) ) ;
#212 = CALENDAR_DATE ( 2023, 13, 2 ) ;
#213 = UNCERTAINTY_MEASURE_WITH_UNIT (LENGTH_MEASURE( 1.000000000000000082E-05 ), #153, 'distance_accuracy_value', 'NONE');
#214 = APPLICATION_PROTOCOL_DEFINITION ( 'international standard', 'config_control_design', 1994, #187 ) ;
#215 = APPROVAL_ROLE ( '' ) ;
#216 = AXIS2_PLACEMENT_3D ( 'NONE', #255, #139, #80 ) ;
#217 = ORGANIZATION ( 'NEURÈENÝ', 'NEURÈENÝ', '' ) ;
#218 = ADVANCED_FACE ( 'NONE', ( #248 ), #195, .T. ) ;
#219 = DIRECTION ( 'NONE',  ( 1.000000000000000000, 0.000000000000000000, 0.000000000000000000 ) ) ;
#220 = PERSON_AND_ORGANIZATION ( #86, #217 ) ;
#221 = FACE_OUTER_BOUND ( 'NONE', #42, .T. ) ;
#222 = CLOSED_SHELL ( 'NONE', ( #23, #73, #147, #144, #199, #218, #252 ) ) ;
#223 = CARTESIAN_POINT ( 'NONE',  ( 0.5000000000000000000, 6.123233995736766036E-17, 1.199999999999999956 ) ) ;
#224 = FACE_OUTER_BOUND ( 'NONE', #225, .T. ) ;
#225 = EDGE_LOOP ( 'NONE', ( #172, #85, #177, #167 ) ) ;
#226 = VERTEX_POINT ( 'NONE', #7 ) ;
#227 = EDGE_CURVE ( 'NONE', #84, #66, #19, .T. ) ;
#228 = CARTESIAN_POINT ( 'NONE',  ( 0.000000000000000000, 0.000000000000000000, 100.0000000000000000 ) ) ;
#229 = AXIS2_PLACEMENT_3D ( 'NONE', #181, #232, #76 ) ;
#230 = DIRECTION ( 'NONE',  ( 0.000000000000000000, 0.000000000000000000, 1.000000000000000000 ) ) ;
#231 = APPROVAL_STATUS ( 'not_yet_approved' ) ;
#232 = DIRECTION ( 'NONE',  ( 0.000000000000000000, 0.000000000000000000, 1.000000000000000000 ) ) ;
#233 = VECTOR ( 'NONE', #148, 1000.000000000000000 ) ;
#234 = CC_DESIGN_PERSON_AND_ORGANIZATION_ASSIGNMENT ( #58, #253, ( #102 ) ) ;
#235 = DIRECTION ( 'NONE',  ( 1.000000000000000000, 0.000000000000000000, -0.000000000000000000 ) ) ;
#236 = CARTESIAN_POINT ( 'NONE',  ( 0.000000000000000000, 0.000000000000000000, 1.199999999999999956 ) ) ;
#237 = APPROVAL_PERSON_ORGANIZATION ( #111, #121, #215 ) ;
#238 = DIRECTION ( 'NONE',  ( 0.000000000000000000, 0.000000000000000000, 1.000000000000000000 ) ) ;
#239 = MANIFOLD_SOLID_BREP ( 'Pøidat vysunutím3', #222 ) ;
#240 = DIRECTION ( 'NONE',  ( 0.000000000000000000, 0.000000000000000000, 1.000000000000000000 ) ) ;
#241 = CARTESIAN_POINT ( 'NONE',  ( -0.5000000000000000000, 0.000000000000000000, 1.199999999999999956 ) ) ;
#242 = DIRECTION ( 'NONE',  ( 1.000000000000000000, 0.000000000000000000, 0.000000000000000000 ) ) ;
#243 = ORIENTED_EDGE ( 'NONE', *, *, #31, .T. ) ;
#244 = VERTEX_POINT ( 'NONE', #68 ) ;
#245 = DIRECTION ( 'NONE',  ( 1.000000000000000000, 0.000000000000000000, 0.000000000000000000 ) ) ;
#246 =( GEOMETRIC_REPRESENTATION_CONTEXT ( 3 ) GLOBAL_UNCERTAINTY_ASSIGNED_CONTEXT ( ( #213 ) ) GLOBAL_UNIT_ASSIGNED_CONTEXT ( ( #153, #91, #106 ) ) REPRESENTATION_CONTEXT ( 'NONE', 'WORKASPACE' ) );
#247 = ORIENTED_EDGE ( 'NONE', *, *, #155, .F. ) ;
#248 = FACE_OUTER_BOUND ( 'NONE', #182, .T. ) ;
#249 = PERSON_AND_ORGANIZATION ( #86, #217 ) ;
#250 = PERSON_AND_ORGANIZATION_ROLE ( 'creator' ) ;
#251 = ORIENTED_EDGE ( 'NONE', *, *, #125, .T. ) ;
#252 = ADVANCED_FACE ( 'NONE', ( #50 ), #48, .T. ) ;
#253 = PERSON_AND_ORGANIZATION_ROLE ( 'design_owner' ) ;
#254 = DATE_TIME_ROLE ( 'creation_date' ) ;
#255 = CARTESIAN_POINT ( 'NONE',  ( 0.000000000000000000, 0.000000000000000000, 1.199999999999999956 ) ) ;
ENDSEC;
END-ISO-10303-21;
