ISO-10303-21;
HEADER;
FILE_DESCRIPTION (( 'STEP AP203' ),
    '1' );
FILE_NAME ('880a.STEP',
    '2023-02-13T14:48:40',
    ( '' ),
    ( '' ),
    'SwSTEP 2.0',
    'SolidWorks 2019',
    '' );
FILE_SCHEMA (( 'CONFIG_CONTROL_DESIGN' ));
ENDSEC;

DATA;
#1 = CIRCLE ( 'NONE', #147, 3.500000000000000000 ) ;
#2 = ORIENTED_EDGE ( 'NONE', *, *, #133, .F. ) ;
#3 = CARTESIAN_POINT ( 'NONE',  ( 3.500000000000000000, 4.286263797015735609E-16, 400.0000000000000000 ) ) ;
#4 = ORIENTED_EDGE ( 'NONE', *, *, #254, .T. ) ;
#5 = CYLINDRICAL_SURFACE ( 'NONE', #65, 3.500000000000000000 ) ;
#6 = ORIENTED_EDGE ( 'NONE', *, *, #211, .F. ) ;
#7 = CIRCLE ( 'NONE', #227, 6.000000000000000888 ) ;
#8 = APPROVAL_ROLE ( '' ) ;
#9 = APPROVAL_DATE_TIME ( #55, #117 ) ;
#10 = CC_DESIGN_PERSON_AND_ORGANIZATION_ASSIGNMENT ( #12, #47, ( #22 ) ) ;
#11 = ORIENTED_EDGE ( 'NONE', *, *, #200, .F. ) ;
#12 = PERSON_AND_ORGANIZATION ( #228, #71 ) ;
#13 = CC_DESIGN_SECURITY_CLASSIFICATION ( #22, ( #191 ) ) ;
#14 = LINE ( 'NONE', #148, #203 ) ;
#15 = CARTESIAN_POINT ( 'NONE',  ( 0.000000000000000000, 0.000000000000000000, 5.000000000000000000 ) ) ;
#16 = DIRECTION ( 'NONE',  ( 0.000000000000000000, 0.000000000000000000, 1.000000000000000000 ) ) ;
#17 = DIRECTION ( 'NONE',  ( 0.000000000000000000, 0.000000000000000000, 1.000000000000000000 ) ) ;
#18 = LOCAL_TIME ( 15, 48, 40.00000000000000000, #126 ) ;
#19 = DIRECTION ( 'NONE',  ( -0.000000000000000000, -0.000000000000000000, -1.000000000000000000 ) ) ;
#20 = LINE ( 'NONE', #96, #174 ) ;
#21 = DIRECTION ( 'NONE',  ( 1.000000000000000000, 0.000000000000000000, 0.000000000000000000 ) ) ;
#22 = SECURITY_CLASSIFICATION ( '', '', #163 ) ;
#23 = PRODUCT ( '880a', '880a', '', ( #195 ) ) ;
#24 = CARTESIAN_POINT ( 'NONE',  ( -3.500000000000000000, 0.000000000000000000, 400.0000000000000000 ) ) ;
#25 = ORIENTED_EDGE ( 'NONE', *, *, #172, .T. ) ;
#26 = CARTESIAN_POINT ( 'NONE',  ( -3.500000000000000000, 0.000000000000000000, 400.0000000000000000 ) ) ;
#27 = AXIS2_PLACEMENT_3D ( 'NONE', #209, #166, #190 ) ;
#28 = DIRECTION ( 'NONE',  ( 1.000000000000000000, 0.000000000000000000, 0.000000000000000000 ) ) ;
#29 = ORIENTED_EDGE ( 'NONE', *, *, #133, .T. ) ;
#30 = DIRECTION ( 'NONE',  ( 1.000000000000000000, 0.000000000000000000, 0.000000000000000000 ) ) ;
#31 = FACE_OUTER_BOUND ( 'NONE', #72, .T. ) ;
#32 = DESIGN_CONTEXT ( 'detailed design', #232, 'design' ) ;
#33 = ORIENTED_EDGE ( 'NONE', *, *, #247, .F. ) ;
#34 = PERSON_AND_ORGANIZATION ( #228, #71 ) ;
#35 = ADVANCED_FACE ( 'NONE', ( #242 ), #74, .T. ) ;
#36 = DIRECTION ( 'NONE',  ( 1.000000000000000000, 0.000000000000000000, -0.000000000000000000 ) ) ;
#37 = VERTEX_POINT ( 'NONE', #249 ) ;
#38 = DIRECTION ( 'NONE',  ( 0.000000000000000000, 0.000000000000000000, 1.000000000000000000 ) ) ;
#39 = EDGE_LOOP ( 'NONE', ( #196, #49 ) ) ;
#40 = EDGE_CURVE ( 'NONE', #243, #69, #92, .T. ) ;
#41 = AXIS2_PLACEMENT_3D ( 'NONE', #210, #17, #79 ) ;
#42 = PERSON_AND_ORGANIZATION ( #228, #71 ) ;
#43 = ORIENTED_EDGE ( 'NONE', *, *, #40, .T. ) ;
#44 = PERSON_AND_ORGANIZATION ( #228, #71 ) ;
#45 = LINE ( 'NONE', #162, #186 ) ;
#46 = ADVANCED_FACE ( 'NONE', ( #187, #250 ), #150, .T. ) ;
#47 = PERSON_AND_ORGANIZATION_ROLE ( 'classification_officer' ) ;
#48 = DIRECTION ( 'NONE',  ( 0.000000000000000000, 0.000000000000000000, 1.000000000000000000 ) ) ;
#49 = ORIENTED_EDGE ( 'NONE', *, *, #245, .F. ) ;
#50 = VECTOR ( 'NONE', #64, 1000.000000000000000 ) ;
#51 = DIRECTION ( 'NONE',  ( 0.000000000000000000, 0.000000000000000000, 1.000000000000000000 ) ) ;
#52 = CALENDAR_DATE ( 2023, 13, 2 ) ;
#53 = PRODUCT_RELATED_PRODUCT_CATEGORY ( 'detail', '', ( #23 ) ) ;
#54 = DIRECTION ( 'NONE',  ( 0.000000000000000000, 0.000000000000000000, 1.000000000000000000 ) ) ;
#55 = DATE_AND_TIME ( #220, #84 ) ;
#56 = AXIS2_PLACEMENT_3D ( 'NONE', #15, #54, #36 ) ;
#57 = CARTESIAN_POINT ( 'NONE',  ( 0.000000000000000000, 0.000000000000000000, 400.0000000000000000 ) ) ;
#58 = DIRECTION ( 'NONE',  ( -1.000000000000000000, 0.000000000000000000, 0.000000000000000000 ) ) ;
#59 = EDGE_CURVE ( 'NONE', #86, #100, #1, .T. ) ;
#60 = ADVANCED_BREP_SHAPE_REPRESENTATION ( '880a', ( #153, #88 ), #62 ) ;
#61 = DIRECTION ( 'NONE',  ( 0.000000000000000000, 0.000000000000000000, 1.000000000000000000 ) ) ;
#62 =( GEOMETRIC_REPRESENTATION_CONTEXT ( 3 ) GLOBAL_UNCERTAINTY_ASSIGNED_CONTEXT ( ( #112 ) ) GLOBAL_UNIT_ASSIGNED_CONTEXT ( ( #231, #154, #151 ) ) REPRESENTATION_CONTEXT ( 'NONE', 'WORKASPACE' ) );
#63 = ADVANCED_FACE ( 'NONE', ( #134 ), #132, .F. ) ;
#64 = DIRECTION ( 'NONE',  ( -0.000000000000000000, -0.000000000000000000, -1.000000000000000000 ) ) ;
#65 = AXIS2_PLACEMENT_3D ( 'NONE', #87, #161, #241 ) ;
#66 = CARTESIAN_POINT ( 'NONE',  ( 0.000000000000000000, 0.000000000000000000, 5.000000000000000000 ) ) ;
#67 = ORIENTED_EDGE ( 'NONE', *, *, #245, .T. ) ;
#68 = DIRECTION ( 'NONE',  ( -0.000000000000000000, -0.000000000000000000, -1.000000000000000000 ) ) ;
#69 = VERTEX_POINT ( 'NONE', #255 ) ;
#70 = PERSON_AND_ORGANIZATION ( #228, #71 ) ;
#71 = ORGANIZATION ( 'NEURÈENÝ', 'NEURÈENÝ', '' ) ;
#72 = EDGE_LOOP ( 'NONE', ( #33, #176, #194, #43 ) ) ;
#73 = CARTESIAN_POINT ( 'NONE',  ( 0.000000000000000000, 0.000000000000000000, 400.0000000000000000 ) ) ;
#74 = CYLINDRICAL_SURFACE ( 'NONE', #105, 6.000000000000000888 ) ;
#75 = DATE_AND_TIME ( #121, #18 ) ;
#76 = APPROVAL_STATUS ( 'not_yet_approved' ) ;
#77 = AXIS2_PLACEMENT_3D ( 'NONE', #159, #143, #238 ) ;
#78 = CARTESIAN_POINT ( 'NONE',  ( -6.000000000000000888, 0.000000000000000000, 0.000000000000000000 ) ) ;
#79 = DIRECTION ( 'NONE',  ( 1.000000000000000000, 0.000000000000000000, 0.000000000000000000 ) ) ;
#80 = LOCAL_TIME ( 15, 48, 40.00000000000000000, #144 ) ;
#81 = AXIS2_PLACEMENT_3D ( 'NONE', #225, #127, #207 ) ;
#82 = ORIENTED_EDGE ( 'NONE', *, *, #97, .F. ) ;
#83 = CARTESIAN_POINT ( 'NONE',  ( -3.500000000000000000, 0.000000000000000000, 5.000000000000000000 ) ) ;
#84 = LOCAL_TIME ( 15, 48, 40.00000000000000000, #149 ) ;
#85 = APPROVAL ( #103, 'NEURÈENÝ' ) ;
#86 = VERTEX_POINT ( 'NONE', #83 ) ;
#87 = CARTESIAN_POINT ( 'NONE',  ( 0.000000000000000000, 0.000000000000000000, 400.0000000000000000 ) ) ;
#88 = AXIS2_PLACEMENT_3D ( 'NONE', #213, #38, #177 ) ;
#89 = DATE_TIME_ROLE ( 'classification_date' ) ;
#90 = CC_DESIGN_DATE_AND_TIME_ASSIGNMENT ( #107, #89, ( #22 ) ) ;
#91 = ORIENTED_EDGE ( 'NONE', *, *, #119, .F. ) ;
#92 = CIRCLE ( 'NONE', #41, 6.000000000000000888 ) ;
#93 = DATE_AND_TIME ( #164, #106 ) ;
#94 = APPROVAL_DATE_TIME ( #128, #85 ) ;
#95 = AXIS2_PLACEMENT_3D ( 'NONE', #57, #16, #30 ) ;
#96 = CARTESIAN_POINT ( 'NONE',  ( 3.500000000000000000, 4.286263797015735609E-16, 400.0000000000000000 ) ) ;
#97 = EDGE_CURVE ( 'NONE', #37, #216, #7, .T. ) ;
#98 = AXIS2_PLACEMENT_3D ( 'NONE', #224, #51, #28 ) ;
#99 = CARTESIAN_POINT ( 'NONE',  ( 0.000000000000000000, 0.000000000000000000, 5.000000000000000000 ) ) ;
#100 = VERTEX_POINT ( 'NONE', #136 ) ;
#101 = CIRCLE ( 'NONE', #27, 6.000000000000000888 ) ;
#102 = ORIENTED_EDGE ( 'NONE', *, *, #59, .T. ) ;
#103 = APPROVAL_STATUS ( 'not_yet_approved' ) ;
#104 = CYLINDRICAL_SURFACE ( 'NONE', #252, 6.000000000000000888 ) ;
#105 = AXIS2_PLACEMENT_3D ( 'NONE', #124, #19, #58 ) ;
#106 = LOCAL_TIME ( 15, 48, 40.00000000000000000, #221 ) ;
#107 = DATE_AND_TIME ( #208, #142 ) ;
#108 = EDGE_LOOP ( 'NONE', ( #215, #91 ) ) ;
#109 = APPROVAL_STATUS ( 'not_yet_approved' ) ;
#110 = CIRCLE ( 'NONE', #165, 3.500000000000000000 ) ;
#111 = EDGE_CURVE ( 'NONE', #198, #86, #155, .T. ) ;
#112 = UNCERTAINTY_MEASURE_WITH_UNIT (LENGTH_MEASURE( 1.000000000000000082E-05 ), #231, 'distance_accuracy_value', 'NONE');
#113 = ORIENTED_EDGE ( 'NONE', *, *, #97, .T. ) ;
#114 = APPROVAL_PERSON_ORGANIZATION ( #244, #237, #145 ) ;
#115 = APPLICATION_PROTOCOL_DEFINITION ( 'international standard', 'config_control_design', 1994, #189 ) ;
#116 = ORIENTED_EDGE ( 'NONE', *, *, #119, .T. ) ;
#117 = APPROVAL ( #109, 'NEURÈENÝ' ) ;
#118 = DIRECTION ( 'NONE',  ( -1.000000000000000000, 0.000000000000000000, 0.000000000000000000 ) ) ;
#119 = EDGE_CURVE ( 'NONE', #100, #86, #110, .T. ) ;
#120 = CC_DESIGN_APPROVAL ( #237, ( #22 ) ) ;
#121 = CALENDAR_DATE ( 2023, 13, 2 ) ;
#122 = DIRECTION ( 'NONE',  ( -0.000000000000000000, -0.000000000000000000, -1.000000000000000000 ) ) ;
#123 = COORDINATED_UNIVERSAL_TIME_OFFSET ( 1, 0, .AHEAD. ) ;
#124 = CARTESIAN_POINT ( 'NONE',  ( 0.000000000000000000, 0.000000000000000000, 5.000000000000000000 ) ) ;
#125 = APPROVAL_DATE_TIME ( #93, #237 ) ;
#126 = COORDINATED_UNIVERSAL_TIME_OFFSET ( 1, 0, .AHEAD. ) ;
#127 = DIRECTION ( 'NONE',  ( 0.000000000000000000, 0.000000000000000000, 1.000000000000000000 ) ) ;
#128 = DATE_AND_TIME ( #52, #80 ) ;
#129 = DIRECTION ( 'NONE',  ( -1.000000000000000000, 0.000000000000000000, 0.000000000000000000 ) ) ;
#130 = ADVANCED_FACE ( 'NONE', ( #168 ), #212, .T. ) ;
#131 = CIRCLE ( 'NONE', #95, 3.500000000000000000 ) ;
#132 = PLANE ( 'NONE',  #81 ) ;
#133 = EDGE_CURVE ( 'NONE', #140, #100, #20, .T. ) ;
#134 = FACE_OUTER_BOUND ( 'NONE', #39, .T. ) ;
#135 = CLOSED_SHELL ( 'NONE', ( #130, #35, #222, #46, #63, #167, #206 ) ) ;
#136 = CARTESIAN_POINT ( 'NONE',  ( 3.500000000000000000, 4.286263797015735609E-16, 5.000000000000000000 ) ) ;
#137 = DIRECTION ( 'NONE',  ( 0.000000000000000000, 0.000000000000000000, 1.000000000000000000 ) ) ;
#138 = CC_DESIGN_PERSON_AND_ORGANIZATION_ASSIGNMENT ( #44, #202, ( #191 ) ) ;
#139 = DIRECTION ( 'NONE',  ( 1.000000000000000000, 0.000000000000000000, 0.000000000000000000 ) ) ;
#140 = VERTEX_POINT ( 'NONE', #3 ) ;
#141 = PERSON_AND_ORGANIZATION_ROLE ( 'design_owner' ) ;
#142 = LOCAL_TIME ( 15, 48, 40.00000000000000000, #123 ) ;
#143 = DIRECTION ( 'NONE',  ( 0.000000000000000000, 0.000000000000000000, 1.000000000000000000 ) ) ;
#144 = COORDINATED_UNIVERSAL_TIME_OFFSET ( 1, 0, .AHEAD. ) ;
#145 = APPROVAL_ROLE ( '' ) ;
#146 = FACE_OUTER_BOUND ( 'NONE', #173, .T. ) ;
#147 = AXIS2_PLACEMENT_3D ( 'NONE', #251, #61, #192 ) ;
#148 = CARTESIAN_POINT ( 'NONE',  ( 6.000000000000000888, 7.347880794884120722E-16, 5.000000000000000000 ) ) ;
#149 = COORDINATED_UNIVERSAL_TIME_OFFSET ( 1, 0, .AHEAD. ) ;
#150 = PLANE ( 'NONE',  #56 ) ;
#151 =( NAMED_UNIT ( * ) SI_UNIT ( $, .STERADIAN. ) SOLID_ANGLE_UNIT ( ) );
#152 = AXIS2_PLACEMENT_3D ( 'NONE', #73, #48, #139 ) ;
#153 = MANIFOLD_SOLID_BREP ( 'Pøidat vysunutím3', #135 ) ;
#154 =( NAMED_UNIT ( * ) PLANE_ANGLE_UNIT ( ) SI_UNIT ( $, .RADIAN. ) );
#155 = LINE ( 'NONE', #24, #50 ) ;
#156 = APPROVAL_PERSON_ORGANIZATION ( #34, #117, #8 ) ;
#157 = CC_DESIGN_PERSON_AND_ORGANIZATION_ASSIGNMENT ( #188, #179, ( #233 ) ) ;
#158 = EDGE_LOOP ( 'NONE', ( #11, #29, #116, #239 ) ) ;
#159 = CARTESIAN_POINT ( 'NONE',  ( 0.000000000000000000, 0.000000000000000000, 400.0000000000000000 ) ) ;
#160 = APPROVAL_ROLE ( '' ) ;
#161 = DIRECTION ( 'NONE',  ( -0.000000000000000000, -0.000000000000000000, -1.000000000000000000 ) ) ;
#162 = CARTESIAN_POINT ( 'NONE',  ( -6.000000000000000888, 0.000000000000000000, 5.000000000000000000 ) ) ;
#163 = SECURITY_CLASSIFICATION_LEVEL ( 'unclassified' ) ;
#164 = CALENDAR_DATE ( 2023, 13, 2 ) ;
#165 = AXIS2_PLACEMENT_3D ( 'NONE', #99, #137, #21 ) ;
#166 = DIRECTION ( 'NONE',  ( 0.000000000000000000, 0.000000000000000000, 1.000000000000000000 ) ) ;
#167 = ADVANCED_FACE ( 'NONE', ( #146 ), #5, .T. ) ;
#168 = FACE_OUTER_BOUND ( 'NONE', #158, .T. ) ;
#169 = ORIENTED_EDGE ( 'NONE', *, *, #254, .F. ) ;
#170 = CC_DESIGN_PERSON_AND_ORGANIZATION_ASSIGNMENT ( #185, #240, ( #191 ) ) ;
#171 = PRODUCT_DEFINITION_SHAPE ( 'NONE', 'NONE',  #233 ) ;
#172 = EDGE_CURVE ( 'NONE', #216, #37, #193, .T. ) ;
#173 = EDGE_LOOP ( 'NONE', ( #2, #169, #235, #102 ) ) ;
#174 = VECTOR ( 'NONE', #218, 1000.000000000000000 ) ;
#175 = PLANE ( 'NONE',  #77 ) ;
#176 = ORIENTED_EDGE ( 'NONE', *, *, #172, .F. ) ;
#177 = DIRECTION ( 'NONE',  ( 1.000000000000000000, 0.000000000000000000, 0.000000000000000000 ) ) ;
#178 = EDGE_LOOP ( 'NONE', ( #82, #199, #67, #6 ) ) ;
#179 = PERSON_AND_ORGANIZATION_ROLE ( 'creator' ) ;
#180 = APPROVAL_PERSON_ORGANIZATION ( #42, #85, #160 ) ;
#181 = CARTESIAN_POINT ( 'NONE',  ( 0.000000000000000000, 0.000000000000000000, 5.000000000000000000 ) ) ;
#182 = EDGE_LOOP ( 'NONE', ( #4, #184 ) ) ;
#183 = CC_DESIGN_PERSON_AND_ORGANIZATION_ASSIGNMENT ( #70, #141, ( #23 ) ) ;
#184 = ORIENTED_EDGE ( 'NONE', *, *, #200, .T. ) ;
#185 = PERSON_AND_ORGANIZATION ( #228, #71 ) ;
#186 = VECTOR ( 'NONE', #122, 1000.000000000000000 ) ;
#187 = FACE_BOUND ( 'NONE', #108, .T. ) ;
#188 = PERSON_AND_ORGANIZATION ( #228, #71 ) ;
#189 = APPLICATION_CONTEXT ( 'configuration controlled 3d designs of mechanical parts and assemblies' ) ;
#190 = DIRECTION ( 'NONE',  ( 1.000000000000000000, 0.000000000000000000, 0.000000000000000000 ) ) ;
#191 = PRODUCT_DEFINITION_FORMATION_WITH_SPECIFIED_SOURCE ( 'LIBOVOLNÝ', '', #23, .NOT_KNOWN. ) ;
#192 = DIRECTION ( 'NONE',  ( 1.000000000000000000, 0.000000000000000000, 0.000000000000000000 ) ) ;
#193 = CIRCLE ( 'NONE', #98, 6.000000000000000888 ) ;
#194 = ORIENTED_EDGE ( 'NONE', *, *, #211, .T. ) ;
#195 = MECHANICAL_CONTEXT ( 'NONE', #189, 'mechanical' ) ;
#196 = ORIENTED_EDGE ( 'NONE', *, *, #40, .F. ) ;
#197 = DIRECTION ( 'NONE',  ( 1.000000000000000000, 0.000000000000000000, 0.000000000000000000 ) ) ;
#198 = VERTEX_POINT ( 'NONE', #26 ) ;
#199 = ORIENTED_EDGE ( 'NONE', *, *, #247, .T. ) ;
#200 = EDGE_CURVE ( 'NONE', #140, #198, #234, .T. ) ;
#201 = CARTESIAN_POINT ( 'NONE',  ( -6.000000000000000888, 0.000000000000000000, 5.000000000000000000 ) ) ;
#202 = PERSON_AND_ORGANIZATION_ROLE ( 'design_supplier' ) ;
#203 = VECTOR ( 'NONE', #248, 1000.000000000000000 ) ;
#204 = FACE_OUTER_BOUND ( 'NONE', #182, .T. ) ;
#205 = SHAPE_DEFINITION_REPRESENTATION ( #171, #60 ) ;
#206 = ADVANCED_FACE ( 'NONE', ( #204 ), #175, .T. ) ;
#207 = DIRECTION ( 'NONE',  ( 1.000000000000000000, 0.000000000000000000, -0.000000000000000000 ) ) ;
#208 = CALENDAR_DATE ( 2023, 13, 2 ) ;
#209 = CARTESIAN_POINT ( 'NONE',  ( 0.000000000000000000, 0.000000000000000000, 0.000000000000000000 ) ) ;
#210 = CARTESIAN_POINT ( 'NONE',  ( 0.000000000000000000, 0.000000000000000000, 0.000000000000000000 ) ) ;
#211 = EDGE_CURVE ( 'NONE', #216, #243, #45, .T. ) ;
#212 = CYLINDRICAL_SURFACE ( 'NONE', #230, 3.500000000000000000 ) ;
#213 = CARTESIAN_POINT ( 'NONE',  ( 0.000000000000000000, 0.000000000000000000, 0.000000000000000000 ) ) ;
#214 = CC_DESIGN_APPROVAL ( #85, ( #233 ) ) ;
#215 = ORIENTED_EDGE ( 'NONE', *, *, #59, .F. ) ;
#216 = VERTEX_POINT ( 'NONE', #201 ) ;
#217 = APPLICATION_PROTOCOL_DEFINITION ( 'international standard', 'config_control_design', 1994, #232 ) ;
#218 = DIRECTION ( 'NONE',  ( -0.000000000000000000, -0.000000000000000000, -1.000000000000000000 ) ) ;
#219 = EDGE_LOOP ( 'NONE', ( #25, #113 ) ) ;
#220 = CALENDAR_DATE ( 2023, 13, 2 ) ;
#221 = COORDINATED_UNIVERSAL_TIME_OFFSET ( 1, 0, .AHEAD. ) ;
#222 = ADVANCED_FACE ( 'NONE', ( #31 ), #104, .T. ) ;
#223 = CC_DESIGN_APPROVAL ( #117, ( #191 ) ) ;
#224 = CARTESIAN_POINT ( 'NONE',  ( 0.000000000000000000, 0.000000000000000000, 5.000000000000000000 ) ) ;
#225 = CARTESIAN_POINT ( 'NONE',  ( 0.000000000000000000, 0.000000000000000000, 0.000000000000000000 ) ) ;
#226 = DIRECTION ( 'NONE',  ( -0.000000000000000000, -0.000000000000000000, -1.000000000000000000 ) ) ;
#227 = AXIS2_PLACEMENT_3D ( 'NONE', #66, #236, #197 ) ;
#228 = PERSON ( 'NEURÈENÝ', 'NEURÈENÝ', 'NEURÈENÝ', ('NEURÈENÝ'), ('NEURÈENÝ'), ('NEURÈENÝ') ) ;
#229 = CC_DESIGN_DATE_AND_TIME_ASSIGNMENT ( #75, #246, ( #233 ) ) ;
#230 = AXIS2_PLACEMENT_3D ( 'NONE', #253, #68, #118 ) ;
#231 =( LENGTH_UNIT ( ) NAMED_UNIT ( * ) SI_UNIT ( .MILLI., .METRE. ) );
#232 = APPLICATION_CONTEXT ( 'configuration controlled 3d designs of mechanical parts and assemblies' ) ;
#233 = PRODUCT_DEFINITION ( 'NEZNÁMÝ', '', #191, #32 ) ;
#234 = CIRCLE ( 'NONE', #152, 3.500000000000000000 ) ;
#235 = ORIENTED_EDGE ( 'NONE', *, *, #111, .T. ) ;
#236 = DIRECTION ( 'NONE',  ( 0.000000000000000000, 0.000000000000000000, 1.000000000000000000 ) ) ;
#237 = APPROVAL ( #76, 'NEURÈENÝ' ) ;
#238 = DIRECTION ( 'NONE',  ( 1.000000000000000000, 0.000000000000000000, -0.000000000000000000 ) ) ;
#239 = ORIENTED_EDGE ( 'NONE', *, *, #111, .F. ) ;
#240 = PERSON_AND_ORGANIZATION_ROLE ( 'creator' ) ;
#241 = DIRECTION ( 'NONE',  ( -1.000000000000000000, 0.000000000000000000, 0.000000000000000000 ) ) ;
#242 = FACE_OUTER_BOUND ( 'NONE', #178, .T. ) ;
#243 = VERTEX_POINT ( 'NONE', #78 ) ;
#244 = PERSON_AND_ORGANIZATION ( #228, #71 ) ;
#245 = EDGE_CURVE ( 'NONE', #69, #243, #101, .T. ) ;
#246 = DATE_TIME_ROLE ( 'creation_date' ) ;
#247 = EDGE_CURVE ( 'NONE', #37, #69, #14, .T. ) ;
#248 = DIRECTION ( 'NONE',  ( -0.000000000000000000, -0.000000000000000000, -1.000000000000000000 ) ) ;
#249 = CARTESIAN_POINT ( 'NONE',  ( 6.000000000000000888, 7.347880794884120722E-16, 5.000000000000000000 ) ) ;
#250 = FACE_OUTER_BOUND ( 'NONE', #219, .T. ) ;
#251 = CARTESIAN_POINT ( 'NONE',  ( 0.000000000000000000, 0.000000000000000000, 5.000000000000000000 ) ) ;
#252 = AXIS2_PLACEMENT_3D ( 'NONE', #181, #226, #129 ) ;
#253 = CARTESIAN_POINT ( 'NONE',  ( 0.000000000000000000, 0.000000000000000000, 400.0000000000000000 ) ) ;
#254 = EDGE_CURVE ( 'NONE', #198, #140, #131, .T. ) ;
#255 = CARTESIAN_POINT ( 'NONE',  ( 6.000000000000000888, 7.347880794884120722E-16, 0.000000000000000000 ) ) ;
ENDSEC;
END-ISO-10303-21;
