ISO-10303-21;
HEADER;
FILE_DESCRIPTION (( 'STEP AP203' ),
    '1' );
FILE_NAME ('e53b.STEP',
    '2023-02-13T17:04:12',
    ( '' ),
    ( '' ),
    'SwSTEP 2.0',
    'SolidWorks 2019',
    '' );
FILE_SCHEMA (( 'CONFIG_CONTROL_DESIGN' ));
ENDSEC;

DATA;
#1 = ORIENTED_EDGE ( 'NONE', *, *, #109, .T. ) ;
#2 = ORIENTED_EDGE ( 'NONE', *, *, #78, .T. ) ;
#3 = CC_DESIGN_APPROVAL ( #139, ( #219 ) ) ;
#4 = CIRCLE ( 'NONE', #163, 1.250000000000000000 ) ;
#5 = LINE ( 'NONE', #51, #234 ) ;
#6 = CC_DESIGN_PERSON_AND_ORGANIZATION_ASSIGNMENT ( #208, #43, ( #201 ) ) ;
#7 = UNCERTAINTY_MEASURE_WITH_UNIT (LENGTH_MEASURE( 1.000000000000000082E-05 ), #185, 'distance_accuracy_value', 'NONE');
#8 = EDGE_LOOP ( 'NONE', ( #192, #134 ) ) ;
#9 = DIRECTION ( 'NONE',  ( -0.000000000000000000, -0.000000000000000000, -1.000000000000000000 ) ) ;
#10 = AXIS2_PLACEMENT_3D ( 'NONE', #199, #55, #135 ) ;
#11 = ORIENTED_EDGE ( 'NONE', *, *, #212, .T. ) ;
#12 = PERSON_AND_ORGANIZATION ( #111, #81 ) ;
#13 = LINE ( 'NONE', #181, #143 ) ;
#14 = CARTESIAN_POINT ( 'NONE',  ( 0.000000000000000000, 0.000000000000000000, 250.0000000000000000 ) ) ;
#15 = DIRECTION ( 'NONE',  ( -0.000000000000000000, -0.000000000000000000, -1.000000000000000000 ) ) ;
#16 = CALENDAR_DATE ( 2023, 13, 2 ) ;
#17 = CARTESIAN_POINT ( 'NONE',  ( -2.500000000000000000, 0.000000000000000000, 2.000000000000000000 ) ) ;
#18 = ORIENTED_EDGE ( 'NONE', *, *, #87, .T. ) ;
#19 = PERSON_AND_ORGANIZATION ( #111, #81 ) ;
#20 = ADVANCED_FACE ( 'NONE', ( #101, #80 ), #82, .T. ) ;
#21 = CARTESIAN_POINT ( 'NONE',  ( 2.500000000000000000, 3.061616997868383141E-16, 2.000000000000000000 ) ) ;
#22 = COORDINATED_UNIVERSAL_TIME_OFFSET ( 1, 0, .AHEAD. ) ;
#23 = PERSON_AND_ORGANIZATION ( #111, #81 ) ;
#24 = APPROVAL_PERSON_ORGANIZATION ( #23, #139, #232 ) ;
#25 = DIRECTION ( 'NONE',  ( 0.000000000000000000, 0.000000000000000000, 1.000000000000000000 ) ) ;
#26 = APPLICATION_PROTOCOL_DEFINITION ( 'international standard', 'config_control_design', 1994, #156 ) ;
#27 = DIRECTION ( 'NONE',  ( 1.000000000000000000, 0.000000000000000000, 0.000000000000000000 ) ) ;
#28 = CC_DESIGN_APPROVAL ( #100, ( #130 ) ) ;
#29 = EDGE_CURVE ( 'NONE', #128, #248, #120, .T. ) ;
#30 = CARTESIAN_POINT ( 'NONE',  ( 0.000000000000000000, 0.000000000000000000, 2.000000000000000000 ) ) ;
#31 = CIRCLE ( 'NONE', #153, 1.250000000000000000 ) ;
#32 = CARTESIAN_POINT ( 'NONE',  ( 0.000000000000000000, 0.000000000000000000, 2.000000000000000000 ) ) ;
#33 = FACE_OUTER_BOUND ( 'NONE', #34, .T. ) ;
#34 = EDGE_LOOP ( 'NONE', ( #76, #2, #1, #174 ) ) ;
#35 = DATE_AND_TIME ( #231, #171 ) ;
#36 = CC_DESIGN_DATE_AND_TIME_ASSIGNMENT ( #159, #202, ( #130 ) ) ;
#37 = CARTESIAN_POINT ( 'NONE',  ( -2.500000000000000000, 0.000000000000000000, 2.000000000000000000 ) ) ;
#38 = DIRECTION ( 'NONE',  ( 0.000000000000000000, 0.000000000000000000, 1.000000000000000000 ) ) ;
#39 = DIRECTION ( 'NONE',  ( 1.000000000000000000, 0.000000000000000000, 0.000000000000000000 ) ) ;
#40 = APPROVAL_ROLE ( '' ) ;
#41 = ORIENTED_EDGE ( 'NONE', *, *, #121, .F. ) ;
#42 = CC_DESIGN_PERSON_AND_ORGANIZATION_ASSIGNMENT ( #19, #251, ( #219 ) ) ;
#43 = PERSON_AND_ORGANIZATION_ROLE ( 'design_owner' ) ;
#44 = CARTESIAN_POINT ( 'NONE',  ( 0.000000000000000000, 0.000000000000000000, 0.000000000000000000 ) ) ;
#45 = CIRCLE ( 'NONE', #79, 1.250000000000000000 ) ;
#46 = CARTESIAN_POINT ( 'NONE',  ( -1.250000000000000000, 0.000000000000000000, 2.000000000000000000 ) ) ;
#47 = CARTESIAN_POINT ( 'NONE',  ( 1.250000000000000000, 1.530808498934191571E-16, 2.000000000000000000 ) ) ;
#48 = DIRECTION ( 'NONE',  ( -0.000000000000000000, -0.000000000000000000, -1.000000000000000000 ) ) ;
#49 = ADVANCED_FACE ( 'NONE', ( #169 ), #173, .F. ) ;
#50 = PERSON_AND_ORGANIZATION ( #111, #81 ) ;
#51 = CARTESIAN_POINT ( 'NONE',  ( 1.250000000000000000, 1.530808498934191571E-16, 250.0000000000000000 ) ) ;
#52 = DATE_AND_TIME ( #136, #83 ) ;
#53 = CC_DESIGN_APPROVAL ( #200, ( #104 ) ) ;
#54 = AXIS2_PLACEMENT_3D ( 'NONE', #145, #25, #39 ) ;
#55 = DIRECTION ( 'NONE',  ( 0.000000000000000000, 0.000000000000000000, 1.000000000000000000 ) ) ;
#56 = ORIENTED_EDGE ( 'NONE', *, *, #132, .T. ) ;
#57 = APPROVAL_DATE_TIME ( #35, #200 ) ;
#58 = DIRECTION ( 'NONE',  ( -1.000000000000000000, 0.000000000000000000, 0.000000000000000000 ) ) ;
#59 = ORIENTED_EDGE ( 'NONE', *, *, #29, .F. ) ;
#60 = COORDINATED_UNIVERSAL_TIME_OFFSET ( 1, 0, .AHEAD. ) ;
#61 = APPROVAL_PERSON_ORGANIZATION ( #12, #100, #118 ) ;
#62 = DESIGN_CONTEXT ( 'detailed design', #156, 'design' ) ;
#63 = EDGE_CURVE ( 'NONE', #64, #236, #88, .T. ) ;
#64 = VERTEX_POINT ( 'NONE', #105 ) ;
#65 = DIRECTION ( 'NONE',  ( 1.000000000000000000, 0.000000000000000000, 0.000000000000000000 ) ) ;
#66 = AXIS2_PLACEMENT_3D ( 'NONE', #14, #38, #186 ) ;
#67 = CARTESIAN_POINT ( 'NONE',  ( 0.000000000000000000, 0.000000000000000000, 0.000000000000000000 ) ) ;
#68 = ORIENTED_EDGE ( 'NONE', *, *, #160, .T. ) ;
#69 = FACE_OUTER_BOUND ( 'NONE', #197, .T. ) ;
#70 = AXIS2_PLACEMENT_3D ( 'NONE', #106, #222, #196 ) ;
#71 = ADVANCED_BREP_SHAPE_REPRESENTATION ( 'e53b', ( #220, #138 ), #242 ) ;
#72 = CARTESIAN_POINT ( 'NONE',  ( 0.000000000000000000, 0.000000000000000000, 250.0000000000000000 ) ) ;
#73 = DIRECTION ( 'NONE',  ( 0.000000000000000000, 0.000000000000000000, 1.000000000000000000 ) ) ;
#74 = CALENDAR_DATE ( 2023, 13, 2 ) ;
#75 = AXIS2_PLACEMENT_3D ( 'NONE', #67, #224, #178 ) ;
#76 = ORIENTED_EDGE ( 'NONE', *, *, #167, .F. ) ;
#77 = PERSON_AND_ORGANIZATION_ROLE ( 'design_supplier' ) ;
#78 = EDGE_CURVE ( 'NONE', #226, #250, #5, .T. ) ;
#79 = AXIS2_PLACEMENT_3D ( 'NONE', #72, #183, #213 ) ;
#80 = FACE_OUTER_BOUND ( 'NONE', #113, .T. ) ;
#81 = ORGANIZATION ( 'NEURÈENÝ', 'NEURÈENÝ', '' ) ;
#82 = PLANE ( 'NONE',  #195 ) ;
#83 = LOCAL_TIME ( 18, 4, 12.00000000000000000, #233 ) ;
#84 = AXIS2_PLACEMENT_3D ( 'NONE', #44, #129, #27 ) ;
#85 = DIRECTION ( 'NONE',  ( -0.000000000000000000, -0.000000000000000000, -1.000000000000000000 ) ) ;
#86 = DIRECTION ( 'NONE',  ( -1.000000000000000000, 0.000000000000000000, 0.000000000000000000 ) ) ;
#87 = EDGE_CURVE ( 'NONE', #248, #128, #131, .T. ) ;
#88 = CIRCLE ( 'NONE', #84, 2.500000000000000000 ) ;
#89 = FACE_OUTER_BOUND ( 'NONE', #206, .T. ) ;
#90 = CARTESIAN_POINT ( 'NONE',  ( 0.000000000000000000, 0.000000000000000000, 2.000000000000000000 ) ) ;
#91 = ORIENTED_EDGE ( 'NONE', *, *, #63, .T. ) ;
#92 = DIRECTION ( 'NONE',  ( -0.000000000000000000, -0.000000000000000000, -1.000000000000000000 ) ) ;
#93 = PLANE ( 'NONE',  #66 ) ;
#94 = APPROVAL_DATE_TIME ( #216, #139 ) ;
#95 = PRODUCT_DEFINITION_SHAPE ( 'NONE', 'NONE',  #219 ) ;
#96 = DATE_AND_TIME ( #16, #239 ) ;
#97 = APPROVAL_PERSON_ORGANIZATION ( #141, #200, #40 ) ;
#98 = FACE_OUTER_BOUND ( 'NONE', #126, .T. ) ;
#99 = SECURITY_CLASSIFICATION_LEVEL ( 'unclassified' ) ;
#100 = APPROVAL ( #214, 'NEURÈENÝ' ) ;
#101 = FACE_BOUND ( 'NONE', #8, .T. ) ;
#102 = CIRCLE ( 'NONE', #54, 2.500000000000000000 ) ;
#103 = ORIENTED_EDGE ( 'NONE', *, *, #253, .T. ) ;
#104 = PRODUCT_DEFINITION_FORMATION_WITH_SPECIFIED_SOURCE ( 'LIBOVOLNÝ', '', #201, .NOT_KNOWN. ) ;
#105 = CARTESIAN_POINT ( 'NONE',  ( 2.500000000000000000, 3.061616997868383141E-16, 0.000000000000000000 ) ) ;
#106 = CARTESIAN_POINT ( 'NONE',  ( 0.000000000000000000, 0.000000000000000000, 2.000000000000000000 ) ) ;
#107 = CC_DESIGN_PERSON_AND_ORGANIZATION_ASSIGNMENT ( #207, #77, ( #104 ) ) ;
#108 = DIRECTION ( 'NONE',  ( 1.000000000000000000, 0.000000000000000000, -0.000000000000000000 ) ) ;
#109 = EDGE_CURVE ( 'NONE', #250, #191, #4, .T. ) ;
#110 = CYLINDRICAL_SURFACE ( 'NONE', #179, 2.500000000000000000 ) ;
#111 = PERSON ( 'NEURÈENÝ', 'NEURÈENÝ', 'NEURÈENÝ', ('NEURÈENÝ'), ('NEURÈENÝ'), ('NEURÈENÝ') ) ;
#112 = CARTESIAN_POINT ( 'NONE',  ( 0.000000000000000000, 0.000000000000000000, 250.0000000000000000 ) ) ;
#113 = EDGE_LOOP ( 'NONE', ( #240, #18 ) ) ;
#114 = PERSON_AND_ORGANIZATION_ROLE ( 'classification_officer' ) ;
#115 = LOCAL_TIME ( 18, 4, 12.00000000000000000, #60 ) ;
#116 = APPROVAL_STATUS ( 'not_yet_approved' ) ;
#117 = CYLINDRICAL_SURFACE ( 'NONE', #172, 1.250000000000000000 ) ;
#118 = APPROVAL_ROLE ( '' ) ;
#119 = CALENDAR_DATE ( 2023, 13, 2 ) ;
#120 = CIRCLE ( 'NONE', #70, 2.500000000000000000 ) ;
#121 = EDGE_CURVE ( 'NONE', #180, #226, #45, .T. ) ;
#122 = PERSON_AND_ORGANIZATION ( #111, #81 ) ;
#123 = CC_DESIGN_DATE_AND_TIME_ASSIGNMENT ( #52, #137, ( #219 ) ) ;
#124 = ORIENTED_EDGE ( 'NONE', *, *, #132, .F. ) ;
#125 = MECHANICAL_CONTEXT ( 'NONE', #211, 'mechanical' ) ;
#126 = EDGE_LOOP ( 'NONE', ( #144, #243 ) ) ;
#127 =( NAMED_UNIT ( * ) SI_UNIT ( $, .STERADIAN. ) SOLID_ANGLE_UNIT ( ) );
#128 = VERTEX_POINT ( 'NONE', #37 ) ;
#129 = DIRECTION ( 'NONE',  ( 0.000000000000000000, 0.000000000000000000, 1.000000000000000000 ) ) ;
#130 = SECURITY_CLASSIFICATION ( '', '', #99 ) ;
#131 = CIRCLE ( 'NONE', #10, 2.500000000000000000 ) ;
#132 = EDGE_CURVE ( 'NONE', #128, #236, #203, .T. ) ;
#133 = ORIENTED_EDGE ( 'NONE', *, *, #87, .F. ) ;
#134 = ORIENTED_EDGE ( 'NONE', *, *, #109, .F. ) ;
#135 = DIRECTION ( 'NONE',  ( 1.000000000000000000, 0.000000000000000000, 0.000000000000000000 ) ) ;
#136 = CALENDAR_DATE ( 2023, 13, 2 ) ;
#137 = DATE_TIME_ROLE ( 'creation_date' ) ;
#138 = AXIS2_PLACEMENT_3D ( 'NONE', #165, #238, #65 ) ;
#139 = APPROVAL ( #176, 'NEURÈENÝ' ) ;
#140 = ADVANCED_FACE ( 'NONE', ( #98 ), #93, .T. ) ;
#141 = PERSON_AND_ORGANIZATION ( #111, #81 ) ;
#142 = CARTESIAN_POINT ( 'NONE',  ( 0.000000000000000000, 0.000000000000000000, 2.000000000000000000 ) ) ;
#143 = VECTOR ( 'NONE', #92, 1000.000000000000000 ) ;
#144 = ORIENTED_EDGE ( 'NONE', *, *, #121, .T. ) ;
#145 = CARTESIAN_POINT ( 'NONE',  ( 0.000000000000000000, 0.000000000000000000, 0.000000000000000000 ) ) ;
#146 = ADVANCED_FACE ( 'NONE', ( #190 ), #117, .T. ) ;
#147 = CC_DESIGN_PERSON_AND_ORGANIZATION_ASSIGNMENT ( #50, #114, ( #130 ) ) ;
#148 = APPLICATION_PROTOCOL_DEFINITION ( 'international standard', 'config_control_design', 1994, #211 ) ;
#149 = VECTOR ( 'NONE', #187, 1000.000000000000000 ) ;
#150 = DIRECTION ( 'NONE',  ( 1.000000000000000000, 0.000000000000000000, 0.000000000000000000 ) ) ;
#151 = DIRECTION ( 'NONE',  ( -1.000000000000000000, 0.000000000000000000, 0.000000000000000000 ) ) ;
#152 = AXIS2_PLACEMENT_3D ( 'NONE', #247, #73, #157 ) ;
#153 = AXIS2_PLACEMENT_3D ( 'NONE', #175, #244, #150 ) ;
#154 = CYLINDRICAL_SURFACE ( 'NONE', #162, 1.250000000000000000 ) ;
#155 = PERSON_AND_ORGANIZATION_ROLE ( 'creator' ) ;
#156 = APPLICATION_CONTEXT ( 'configuration controlled 3d designs of mechanical parts and assemblies' ) ;
#157 = DIRECTION ( 'NONE',  ( 1.000000000000000000, 0.000000000000000000, 0.000000000000000000 ) ) ;
#158 = EDGE_CURVE ( 'NONE', #236, #64, #102, .T. ) ;
#159 = DATE_AND_TIME ( #74, #194 ) ;
#160 = EDGE_CURVE ( 'NONE', #248, #64, #237, .T. ) ;
#161 = CYLINDRICAL_SURFACE ( 'NONE', #210, 2.500000000000000000 ) ;
#162 = AXIS2_PLACEMENT_3D ( 'NONE', #112, #9, #86 ) ;
#163 = AXIS2_PLACEMENT_3D ( 'NONE', #90, #215, #246 ) ;
#164 = SHAPE_DEFINITION_REPRESENTATION ( #95, #71 ) ;
#165 = CARTESIAN_POINT ( 'NONE',  ( 0.000000000000000000, 0.000000000000000000, 0.000000000000000000 ) ) ;
#166 = EDGE_LOOP ( 'NONE', ( #255, #184 ) ) ;
#167 = EDGE_CURVE ( 'NONE', #226, #180, #31, .T. ) ;
#168 = PRODUCT_RELATED_PRODUCT_CATEGORY ( 'detail', '', ( #201 ) ) ;
#169 = FACE_OUTER_BOUND ( 'NONE', #166, .T. ) ;
#170 = ORIENTED_EDGE ( 'NONE', *, *, #158, .T. ) ;
#171 = LOCAL_TIME ( 18, 4, 12.00000000000000000, #22 ) ;
#172 = AXIS2_PLACEMENT_3D ( 'NONE', #204, #15, #58 ) ;
#173 = PLANE ( 'NONE',  #75 ) ;
#174 = ORIENTED_EDGE ( 'NONE', *, *, #212, .F. ) ;
#175 = CARTESIAN_POINT ( 'NONE',  ( 0.000000000000000000, 0.000000000000000000, 250.0000000000000000 ) ) ;
#176 = APPROVAL_STATUS ( 'not_yet_approved' ) ;
#177 = DIRECTION ( 'NONE',  ( -0.000000000000000000, -0.000000000000000000, -1.000000000000000000 ) ) ;
#178 = DIRECTION ( 'NONE',  ( 1.000000000000000000, 0.000000000000000000, -0.000000000000000000 ) ) ;
#179 = AXIS2_PLACEMENT_3D ( 'NONE', #142, #235, #151 ) ;
#180 = VERTEX_POINT ( 'NONE', #225 ) ;
#181 = CARTESIAN_POINT ( 'NONE',  ( -1.250000000000000000, 0.000000000000000000, 250.0000000000000000 ) ) ;
#182 = CC_DESIGN_PERSON_AND_ORGANIZATION_ASSIGNMENT ( #122, #155, ( #104 ) ) ;
#183 = DIRECTION ( 'NONE',  ( 0.000000000000000000, 0.000000000000000000, 1.000000000000000000 ) ) ;
#184 = ORIENTED_EDGE ( 'NONE', *, *, #63, .F. ) ;
#185 =( LENGTH_UNIT ( ) NAMED_UNIT ( * ) SI_UNIT ( .MILLI., .METRE. ) );
#186 = DIRECTION ( 'NONE',  ( 1.000000000000000000, 0.000000000000000000, -0.000000000000000000 ) ) ;
#187 = DIRECTION ( 'NONE',  ( -0.000000000000000000, -0.000000000000000000, -1.000000000000000000 ) ) ;
#188 = APPROVAL_DATE_TIME ( #96, #100 ) ;
#189 = CIRCLE ( 'NONE', #152, 1.250000000000000000 ) ;
#190 = FACE_OUTER_BOUND ( 'NONE', #252, .T. ) ;
#191 = VERTEX_POINT ( 'NONE', #46 ) ;
#192 = ORIENTED_EDGE ( 'NONE', *, *, #253, .F. ) ;
#193 = ADVANCED_FACE ( 'NONE', ( #33 ), #154, .T. ) ;
#194 = LOCAL_TIME ( 18, 4, 12.00000000000000000, #249 ) ;
#195 = AXIS2_PLACEMENT_3D ( 'NONE', #30, #198, #108 ) ;
#196 = DIRECTION ( 'NONE',  ( 1.000000000000000000, 0.000000000000000000, 0.000000000000000000 ) ) ;
#197 = EDGE_LOOP ( 'NONE', ( #218, #59, #56, #170 ) ) ;
#198 = DIRECTION ( 'NONE',  ( 0.000000000000000000, 0.000000000000000000, 1.000000000000000000 ) ) ;
#199 = CARTESIAN_POINT ( 'NONE',  ( 0.000000000000000000, 0.000000000000000000, 2.000000000000000000 ) ) ;
#200 = APPROVAL ( #116, 'NEURÈENÝ' ) ;
#201 = PRODUCT ( 'e53b', 'e53b', '', ( #125 ) ) ;
#202 = DATE_TIME_ROLE ( 'classification_date' ) ;
#203 = LINE ( 'NONE', #17, #149 ) ;
#204 = CARTESIAN_POINT ( 'NONE',  ( 0.000000000000000000, 0.000000000000000000, 250.0000000000000000 ) ) ;
#205 = COORDINATED_UNIVERSAL_TIME_OFFSET ( 1, 0, .AHEAD. ) ;
#206 = EDGE_LOOP ( 'NONE', ( #133, #68, #91, #124 ) ) ;
#207 = PERSON_AND_ORGANIZATION ( #111, #81 ) ;
#208 = PERSON_AND_ORGANIZATION ( #111, #81 ) ;
#209 = ADVANCED_FACE ( 'NONE', ( #89 ), #161, .T. ) ;
#210 = AXIS2_PLACEMENT_3D ( 'NONE', #32, #177, #245 ) ;
#211 = APPLICATION_CONTEXT ( 'configuration controlled 3d designs of mechanical parts and assemblies' ) ;
#212 = EDGE_CURVE ( 'NONE', #180, #191, #13, .T. ) ;
#213 = DIRECTION ( 'NONE',  ( 1.000000000000000000, 0.000000000000000000, 0.000000000000000000 ) ) ;
#214 = APPROVAL_STATUS ( 'not_yet_approved' ) ;
#215 = DIRECTION ( 'NONE',  ( 0.000000000000000000, 0.000000000000000000, 1.000000000000000000 ) ) ;
#216 = DATE_AND_TIME ( #119, #115 ) ;
#217 =( NAMED_UNIT ( * ) PLANE_ANGLE_UNIT ( ) SI_UNIT ( $, .RADIAN. ) );
#218 = ORIENTED_EDGE ( 'NONE', *, *, #160, .F. ) ;
#219 = PRODUCT_DEFINITION ( 'NEZNÁMÝ', '', #104, #62 ) ;
#220 = MANIFOLD_SOLID_BREP ( 'Pøidat vysunutím3', #229 ) ;
#221 = VECTOR ( 'NONE', #85, 1000.000000000000000 ) ;
#222 = DIRECTION ( 'NONE',  ( 0.000000000000000000, 0.000000000000000000, 1.000000000000000000 ) ) ;
#223 = ADVANCED_FACE ( 'NONE', ( #69 ), #110, .T. ) ;
#224 = DIRECTION ( 'NONE',  ( 0.000000000000000000, 0.000000000000000000, 1.000000000000000000 ) ) ;
#225 = CARTESIAN_POINT ( 'NONE',  ( -1.250000000000000000, 0.000000000000000000, 250.0000000000000000 ) ) ;
#226 = VERTEX_POINT ( 'NONE', #254 ) ;
#227 = CARTESIAN_POINT ( 'NONE',  ( 2.500000000000000000, 3.061616997868383141E-16, 2.000000000000000000 ) ) ;
#228 = CC_DESIGN_SECURITY_CLASSIFICATION ( #130, ( #104 ) ) ;
#229 = CLOSED_SHELL ( 'NONE', ( #193, #209, #223, #20, #49, #146, #140 ) ) ;
#230 = CARTESIAN_POINT ( 'NONE',  ( -2.500000000000000000, 0.000000000000000000, 0.000000000000000000 ) ) ;
#231 = CALENDAR_DATE ( 2023, 13, 2 ) ;
#232 = APPROVAL_ROLE ( '' ) ;
#233 = COORDINATED_UNIVERSAL_TIME_OFFSET ( 1, 0, .AHEAD. ) ;
#234 = VECTOR ( 'NONE', #48, 1000.000000000000000 ) ;
#235 = DIRECTION ( 'NONE',  ( -0.000000000000000000, -0.000000000000000000, -1.000000000000000000 ) ) ;
#236 = VERTEX_POINT ( 'NONE', #230 ) ;
#237 = LINE ( 'NONE', #21, #221 ) ;
#238 = DIRECTION ( 'NONE',  ( 0.000000000000000000, 0.000000000000000000, 1.000000000000000000 ) ) ;
#239 = LOCAL_TIME ( 18, 4, 12.00000000000000000, #205 ) ;
#240 = ORIENTED_EDGE ( 'NONE', *, *, #29, .T. ) ;
#241 = ORIENTED_EDGE ( 'NONE', *, *, #78, .F. ) ;
#242 =( GEOMETRIC_REPRESENTATION_CONTEXT ( 3 ) GLOBAL_UNCERTAINTY_ASSIGNED_CONTEXT ( ( #7 ) ) GLOBAL_UNIT_ASSIGNED_CONTEXT ( ( #185, #217, #127 ) ) REPRESENTATION_CONTEXT ( 'NONE', 'WORKASPACE' ) );
#243 = ORIENTED_EDGE ( 'NONE', *, *, #167, .T. ) ;
#244 = DIRECTION ( 'NONE',  ( 0.000000000000000000, 0.000000000000000000, 1.000000000000000000 ) ) ;
#245 = DIRECTION ( 'NONE',  ( -1.000000000000000000, 0.000000000000000000, 0.000000000000000000 ) ) ;
#246 = DIRECTION ( 'NONE',  ( 1.000000000000000000, 0.000000000000000000, 0.000000000000000000 ) ) ;
#247 = CARTESIAN_POINT ( 'NONE',  ( 0.000000000000000000, 0.000000000000000000, 2.000000000000000000 ) ) ;
#248 = VERTEX_POINT ( 'NONE', #227 ) ;
#249 = COORDINATED_UNIVERSAL_TIME_OFFSET ( 1, 0, .AHEAD. ) ;
#250 = VERTEX_POINT ( 'NONE', #47 ) ;
#251 = PERSON_AND_ORGANIZATION_ROLE ( 'creator' ) ;
#252 = EDGE_LOOP ( 'NONE', ( #241, #41, #11, #103 ) ) ;
#253 = EDGE_CURVE ( 'NONE', #191, #250, #189, .T. ) ;
#254 = CARTESIAN_POINT ( 'NONE',  ( 1.250000000000000000, 1.530808498934191571E-16, 250.0000000000000000 ) ) ;
#255 = ORIENTED_EDGE ( 'NONE', *, *, #158, .F. ) ;
ENDSEC;
END-ISO-10303-21;
