ISO-10303-21;
HEADER;
FILE_DESCRIPTION (( 'STEP AP203' ),
    '1' );
FILE_NAME ('4935.STEP',
    '2023-02-13T17:28:33',
    ( '' ),
    ( '' ),
    'SwSTEP 2.0',
    'SolidWorks 2019',
    '' );
FILE_SCHEMA (( 'CONFIG_CONTROL_DESIGN' ));
ENDSEC;

DATA;
#1 = DIRECTION ( 'NONE',  ( 1.000000000000000000, 0.000000000000000000, 0.000000000000000000 ) ) ;
#2 = ADVANCED_FACE ( 'NONE', ( #77 ), #164, .T. ) ;
#3 = DATE_AND_TIME ( #69, #200 ) ;
#4 = VERTEX_POINT ( 'NONE', #252 ) ;
#5 = PERSON ( 'NEURÈENÝ', 'NEURÈENÝ', 'NEURÈENÝ', ('NEURÈENÝ'), ('NEURÈENÝ'), ('NEURÈENÝ') ) ;
#6 = PERSON_AND_ORGANIZATION ( #5, #19 ) ;
#7 = MECHANICAL_CONTEXT ( 'NONE', #57, 'mechanical' ) ;
#8 = APPROVAL_STATUS ( 'not_yet_approved' ) ;
#9 = APPROVAL_ROLE ( '' ) ;
#10 = AXIS2_PLACEMENT_3D ( 'NONE', #192, #115, #190 ) ;
#11 = ORIENTED_EDGE ( 'NONE', *, *, #216, .F. ) ;
#12 = EDGE_LOOP ( 'NONE', ( #27, #24 ) ) ;
#13 = LOCAL_TIME ( 18, 28, 33.00000000000000000, #150 ) ;
#14 = CARTESIAN_POINT ( 'NONE',  ( 0.000000000000000000, 0.000000000000000000, 125.0000000000000000 ) ) ;
#15 = CARTESIAN_POINT ( 'NONE',  ( 0.000000000000000000, 0.000000000000000000, 1.199999999999999956 ) ) ;
#16 = FACE_OUTER_BOUND ( 'NONE', #110, .T. ) ;
#17 = CC_DESIGN_PERSON_AND_ORGANIZATION_ASSIGNMENT ( #6, #193, ( #70 ) ) ;
#18 = CARTESIAN_POINT ( 'NONE',  ( 0.000000000000000000, 0.000000000000000000, 1.199999999999999956 ) ) ;
#19 = ORGANIZATION ( 'NEURÈENÝ', 'NEURÈENÝ', '' ) ;
#20 = VECTOR ( 'NONE', #58, 1000.000000000000000 ) ;
#21 = CARTESIAN_POINT ( 'NONE',  ( 0.000000000000000000, 0.000000000000000000, 0.000000000000000000 ) ) ;
#22 = DIRECTION ( 'NONE',  ( 0.000000000000000000, 0.000000000000000000, 1.000000000000000000 ) ) ;
#23 = PERSON_AND_ORGANIZATION_ROLE ( 'creator' ) ;
#24 = ORIENTED_EDGE ( 'NONE', *, *, #222, .T. ) ;
#25 = APPROVAL_ROLE ( '' ) ;
#26 = CC_DESIGN_PERSON_AND_ORGANIZATION_ASSIGNMENT ( #178, #23, ( #138 ) ) ;
#27 = ORIENTED_EDGE ( 'NONE', *, *, #62, .T. ) ;
#28 = CIRCLE ( 'NONE', #42, 1.250000000000000000 ) ;
#29 = UNCERTAINTY_MEASURE_WITH_UNIT (LENGTH_MEASURE( 1.000000000000000082E-05 ), #239, 'distance_accuracy_value', 'NONE');
#30 = VERTEX_POINT ( 'NONE', #87 ) ;
#31 = CIRCLE ( 'NONE', #96, 0.5000000000000000000 ) ;
#32 = CARTESIAN_POINT ( 'NONE',  ( -0.5000000000000000000, 0.000000000000000000, 125.0000000000000000 ) ) ;
#33 = APPROVAL ( #8, 'NEURÈENÝ' ) ;
#34 = FACE_OUTER_BOUND ( 'NONE', #12, .T. ) ;
#35 = EDGE_CURVE ( 'NONE', #68, #194, #228, .T. ) ;
#36 = CALENDAR_DATE ( 2023, 13, 2 ) ;
#37 = CARTESIAN_POINT ( 'NONE',  ( 0.000000000000000000, 0.000000000000000000, 125.0000000000000000 ) ) ;
#38 = SHAPE_DEFINITION_REPRESENTATION ( #126, #154 ) ;
#39 = DIRECTION ( 'NONE',  ( 0.000000000000000000, 0.000000000000000000, 1.000000000000000000 ) ) ;
#40 = PLANE ( 'NONE',  #155 ) ;
#41 = DIRECTION ( 'NONE',  ( 0.000000000000000000, 0.000000000000000000, 1.000000000000000000 ) ) ;
#42 = AXIS2_PLACEMENT_3D ( 'NONE', #59, #210, #1 ) ;
#43 = ORIENTED_EDGE ( 'NONE', *, *, #78, .F. ) ;
#44 = CC_DESIGN_PERSON_AND_ORGANIZATION_ASSIGNMENT ( #240, #50, ( #95 ) ) ;
#45 = AXIS2_PLACEMENT_3D ( 'NONE', #37, #149, #75 ) ;
#46 = EDGE_LOOP ( 'NONE', ( #86, #43 ) ) ;
#47 = PERSON_AND_ORGANIZATION ( #5, #19 ) ;
#48 = EDGE_CURVE ( 'NONE', #194, #217, #232, .T. ) ;
#49 = COORDINATED_UNIVERSAL_TIME_OFFSET ( 1, 0, .AHEAD. ) ;
#50 = PERSON_AND_ORGANIZATION_ROLE ( 'creator' ) ;
#51 = ORIENTED_EDGE ( 'NONE', *, *, #216, .T. ) ;
#52 = CC_DESIGN_DATE_AND_TIME_ASSIGNMENT ( #3, #67, ( #138 ) ) ;
#53 = CARTESIAN_POINT ( 'NONE',  ( 0.000000000000000000, 0.000000000000000000, 1.199999999999999956 ) ) ;
#54 = VECTOR ( 'NONE', #227, 1000.000000000000000 ) ;
#55 = CARTESIAN_POINT ( 'NONE',  ( 0.000000000000000000, 0.000000000000000000, 1.199999999999999956 ) ) ;
#56 = FACE_OUTER_BOUND ( 'NONE', #199, .T. ) ;
#57 = APPLICATION_CONTEXT ( 'configuration controlled 3d designs of mechanical parts and assemblies' ) ;
#58 = DIRECTION ( 'NONE',  ( -0.000000000000000000, -0.000000000000000000, -1.000000000000000000 ) ) ;
#59 = CARTESIAN_POINT ( 'NONE',  ( 0.000000000000000000, 0.000000000000000000, 0.000000000000000000 ) ) ;
#60 = VECTOR ( 'NONE', #63, 1000.000000000000000 ) ;
#61 = DIRECTION ( 'NONE',  ( -1.000000000000000000, 0.000000000000000000, 0.000000000000000000 ) ) ;
#62 = EDGE_CURVE ( 'NONE', #68, #176, #140, .T. ) ;
#63 = DIRECTION ( 'NONE',  ( -0.000000000000000000, -0.000000000000000000, -1.000000000000000000 ) ) ;
#64 = ADVANCED_FACE ( 'NONE', ( #16 ), #204, .T. ) ;
#65 = LINE ( 'NONE', #173, #60 ) ;
#66 = CALENDAR_DATE ( 2023, 13, 2 ) ;
#67 = DATE_TIME_ROLE ( 'creation_date' ) ;
#68 = VERTEX_POINT ( 'NONE', #32 ) ;
#69 = CALENDAR_DATE ( 2023, 13, 2 ) ;
#70 = PRODUCT ( '4935', '4935', '', ( #7 ) ) ;
#71 = APPROVAL_PERSON_ORGANIZATION ( #127, #189, #25 ) ;
#72 = DIRECTION ( 'NONE',  ( 1.000000000000000000, 0.000000000000000000, 0.000000000000000000 ) ) ;
#73 = DIRECTION ( 'NONE',  ( 0.000000000000000000, 0.000000000000000000, 1.000000000000000000 ) ) ;
#74 = AXIS2_PLACEMENT_3D ( 'NONE', #14, #146, #168 ) ;
#75 = DIRECTION ( 'NONE',  ( 1.000000000000000000, 0.000000000000000000, 0.000000000000000000 ) ) ;
#76 = ORIENTED_EDGE ( 'NONE', *, *, #222, .F. ) ;
#77 = FACE_OUTER_BOUND ( 'NONE', #236, .T. ) ;
#78 = EDGE_CURVE ( 'NONE', #217, #194, #31, .T. ) ;
#79 = CC_DESIGN_PERSON_AND_ORGANIZATION_ASSIGNMENT ( #106, #220, ( #81 ) ) ;
#80 = CYLINDRICAL_SURFACE ( 'NONE', #116, 0.5000000000000000000 ) ;
#81 = SECURITY_CLASSIFICATION ( '', '', #122 ) ;
#82 = APPROVAL_STATUS ( 'not_yet_approved' ) ;
#83 = LOCAL_TIME ( 18, 28, 33.00000000000000000, #156 ) ;
#84 =( NAMED_UNIT ( * ) PLANE_ANGLE_UNIT ( ) SI_UNIT ( $, .RADIAN. ) );
#85 = EDGE_LOOP ( 'NONE', ( #139, #243 ) ) ;
#86 = ORIENTED_EDGE ( 'NONE', *, *, #48, .F. ) ;
#87 = CARTESIAN_POINT ( 'NONE',  ( -1.250000000000000000, 0.000000000000000000, 0.000000000000000000 ) ) ;
#88 = CC_DESIGN_APPROVAL ( #189, ( #95 ) ) ;
#89 = DIRECTION ( 'NONE',  ( 1.000000000000000000, 0.000000000000000000, 0.000000000000000000 ) ) ;
#90 = DATE_AND_TIME ( #36, #13 ) ;
#91 = PRODUCT_RELATED_PRODUCT_CATEGORY ( 'detail', '', ( #70 ) ) ;
#92 = DIRECTION ( 'NONE',  ( 0.000000000000000000, 0.000000000000000000, 1.000000000000000000 ) ) ;
#93 = CARTESIAN_POINT ( 'NONE',  ( 0.5000000000000000000, 6.123233995736766036E-17, 125.0000000000000000 ) ) ;
#94 = EDGE_CURVE ( 'NONE', #30, #219, #101, .T. ) ;
#95 = PRODUCT_DEFINITION_FORMATION_WITH_SPECIFIED_SOURCE ( 'LIBOVOLNÝ', '', #70, .NOT_KNOWN. ) ;
#96 = AXIS2_PLACEMENT_3D ( 'NONE', #53, #92, #89 ) ;
#97 = EDGE_CURVE ( 'NONE', #4, #241, #246, .T. ) ;
#98 = FACE_OUTER_BOUND ( 'NONE', #158, .T. ) ;
#99 = DIRECTION ( 'NONE',  ( -0.000000000000000000, -0.000000000000000000, -1.000000000000000000 ) ) ;
#100 = ADVANCED_FACE ( 'NONE', ( #56 ), #202, .T. ) ;
#101 = CIRCLE ( 'NONE', #163, 1.250000000000000000 ) ;
#102 = DIRECTION ( 'NONE',  ( 1.000000000000000000, 0.000000000000000000, -0.000000000000000000 ) ) ;
#103 = APPLICATION_PROTOCOL_DEFINITION ( 'international standard', 'config_control_design', 1994, #247 ) ;
#104 = ORIENTED_EDGE ( 'NONE', *, *, #119, .T. ) ;
#105 = AXIS2_PLACEMENT_3D ( 'NONE', #198, #22, #72 ) ;
#106 = PERSON_AND_ORGANIZATION ( #5, #19 ) ;
#107 = ORIENTED_EDGE ( 'NONE', *, *, #94, .T. ) ;
#108 = DATE_TIME_ROLE ( 'classification_date' ) ;
#109 = DATE_AND_TIME ( #66, #83 ) ;
#110 = EDGE_LOOP ( 'NONE', ( #221, #182, #197, #143 ) ) ;
#111 = CIRCLE ( 'NONE', #10, 0.5000000000000000000 ) ;
#112 = DIRECTION ( 'NONE',  ( -1.000000000000000000, 0.000000000000000000, 0.000000000000000000 ) ) ;
#113 = CARTESIAN_POINT ( 'NONE',  ( 0.000000000000000000, 0.000000000000000000, 1.199999999999999956 ) ) ;
#114 = EDGE_CURVE ( 'NONE', #241, #4, #180, .T. ) ;
#115 = DIRECTION ( 'NONE',  ( 0.000000000000000000, 0.000000000000000000, 1.000000000000000000 ) ) ;
#116 = AXIS2_PLACEMENT_3D ( 'NONE', #208, #99, #61 ) ;
#117 = AXIS2_PLACEMENT_3D ( 'NONE', #183, #134, #112 ) ;
#118 = CARTESIAN_POINT ( 'NONE',  ( 1.250000000000000000, 1.530808498934191571E-16, 0.000000000000000000 ) ) ;
#119 = EDGE_CURVE ( 'NONE', #176, #217, #162, .T. ) ;
#120 = ORIENTED_EDGE ( 'NONE', *, *, #114, .T. ) ;
#121 = APPLICATION_PROTOCOL_DEFINITION ( 'international standard', 'config_control_design', 1994, #57 ) ;
#122 = SECURITY_CLASSIFICATION_LEVEL ( 'unclassified' ) ;
#123 = ORIENTED_EDGE ( 'NONE', *, *, #97, .F. ) ;
#124 = LOCAL_TIME ( 18, 28, 33.00000000000000000, #175 ) ;
#125 = CALENDAR_DATE ( 2023, 13, 2 ) ;
#126 = PRODUCT_DEFINITION_SHAPE ( 'NONE', 'NONE',  #138 ) ;
#127 = PERSON_AND_ORGANIZATION ( #5, #19 ) ;
#128 = APPROVAL_STATUS ( 'not_yet_approved' ) ;
#129 = ORIENTED_EDGE ( 'NONE', *, *, #78, .T. ) ;
#130 = AXIS2_PLACEMENT_3D ( 'NONE', #55, #73, #201 ) ;
#131 = DIRECTION ( 'NONE',  ( -0.000000000000000000, -0.000000000000000000, -1.000000000000000000 ) ) ;
#132 = DIRECTION ( 'NONE',  ( 1.000000000000000000, 0.000000000000000000, 0.000000000000000000 ) ) ;
#133 = DIRECTION ( 'NONE',  ( 0.000000000000000000, 0.000000000000000000, 1.000000000000000000 ) ) ;
#134 = DIRECTION ( 'NONE',  ( -0.000000000000000000, -0.000000000000000000, -1.000000000000000000 ) ) ;
#135 = FACE_OUTER_BOUND ( 'NONE', #225, .T. ) ;
#136 = CARTESIAN_POINT ( 'NONE',  ( -0.5000000000000000000, 0.000000000000000000, 1.199999999999999956 ) ) ;
#137 = ORIENTED_EDGE ( 'NONE', *, *, #174, .F. ) ;
#138 = PRODUCT_DEFINITION ( 'NEZNÁMÝ', '', #95, #181 ) ;
#139 = ORIENTED_EDGE ( 'NONE', *, *, #94, .F. ) ;
#140 = CIRCLE ( 'NONE', #45, 0.5000000000000000000 ) ;
#141 = APPROVAL_DATE_TIME ( #109, #189 ) ;
#142 = PERSON_AND_ORGANIZATION ( #5, #19 ) ;
#143 = ORIENTED_EDGE ( 'NONE', *, *, #48, .T. ) ;
#144 = COORDINATED_UNIVERSAL_TIME_OFFSET ( 1, 0, .AHEAD. ) ;
#145 = ORIENTED_EDGE ( 'NONE', *, *, #244, .T. ) ;
#146 = DIRECTION ( 'NONE',  ( 0.000000000000000000, 0.000000000000000000, 1.000000000000000000 ) ) ;
#147 = PLANE ( 'NONE',  #74 ) ;
#148 = DIRECTION ( 'NONE',  ( -1.000000000000000000, 0.000000000000000000, 0.000000000000000000 ) ) ;
#149 = DIRECTION ( 'NONE',  ( 0.000000000000000000, 0.000000000000000000, 1.000000000000000000 ) ) ;
#150 = COORDINATED_UNIVERSAL_TIME_OFFSET ( 1, 0, .AHEAD. ) ;
#151 = CARTESIAN_POINT ( 'NONE',  ( 0.000000000000000000, 0.000000000000000000, 0.000000000000000000 ) ) ;
#152 = MANIFOLD_SOLID_BREP ( 'Pøidat vysunutím3', #195 ) ;
#153 = LINE ( 'NONE', #211, #170 ) ;
#154 = ADVANCED_BREP_SHAPE_REPRESENTATION ( '4935', ( #152, #105 ), #160 ) ;
#155 = AXIS2_PLACEMENT_3D ( 'NONE', #18, #248, #250 ) ;
#156 = COORDINATED_UNIVERSAL_TIME_OFFSET ( 1, 0, .AHEAD. ) ;
#157 = ADVANCED_FACE ( 'NONE', ( #186, #135 ), #40, .T. ) ;
#158 = EDGE_LOOP ( 'NONE', ( #76, #104, #129, #214 ) ) ;
#159 = APPROVAL_DATE_TIME ( #242, #254 ) ;
#160 =( GEOMETRIC_REPRESENTATION_CONTEXT ( 3 ) GLOBAL_UNCERTAINTY_ASSIGNED_CONTEXT ( ( #29 ) ) GLOBAL_UNIT_ASSIGNED_CONTEXT ( ( #239, #84, #245 ) ) REPRESENTATION_CONTEXT ( 'NONE', 'WORKASPACE' ) );
#161 = ORIENTED_EDGE ( 'NONE', *, *, #114, .F. ) ;
#162 = LINE ( 'NONE', #93, #20 ) ;
#163 = AXIS2_PLACEMENT_3D ( 'NONE', #151, #133, #132 ) ;
#164 = CYLINDRICAL_SURFACE ( 'NONE', #255, 1.250000000000000000 ) ;
#165 = APPROVAL_DATE_TIME ( #90, #33 ) ;
#166 = DIRECTION ( 'NONE',  ( -0.000000000000000000, -0.000000000000000000, -1.000000000000000000 ) ) ;
#167 = AXIS2_PLACEMENT_3D ( 'NONE', #21, #41, #102 ) ;
#168 = DIRECTION ( 'NONE',  ( 1.000000000000000000, 0.000000000000000000, -0.000000000000000000 ) ) ;
#169 = CARTESIAN_POINT ( 'NONE',  ( 1.250000000000000000, 1.530808498934191571E-16, 1.199999999999999956 ) ) ;
#170 = VECTOR ( 'NONE', #188, 1000.000000000000000 ) ;
#171 = AXIS2_PLACEMENT_3D ( 'NONE', #15, #207, #231 ) ;
#172 = ADVANCED_FACE ( 'NONE', ( #34 ), #147, .T. ) ;
#173 = CARTESIAN_POINT ( 'NONE',  ( -1.250000000000000000, 0.000000000000000000, 1.199999999999999956 ) ) ;
#174 = EDGE_CURVE ( 'NONE', #4, #30, #65, .T. ) ;
#175 = COORDINATED_UNIVERSAL_TIME_OFFSET ( 1, 0, .AHEAD. ) ;
#176 = VERTEX_POINT ( 'NONE', #235 ) ;
#177 = PERSON_AND_ORGANIZATION ( #5, #19 ) ;
#178 = PERSON_AND_ORGANIZATION ( #5, #19 ) ;
#179 = ORIENTED_EDGE ( 'NONE', *, *, #174, .T. ) ;
#180 = CIRCLE ( 'NONE', #187, 1.250000000000000000 ) ;
#181 = DESIGN_CONTEXT ( 'detailed design', #247, 'design' ) ;
#182 = ORIENTED_EDGE ( 'NONE', *, *, #62, .F. ) ;
#183 = CARTESIAN_POINT ( 'NONE',  ( 0.000000000000000000, 0.000000000000000000, 1.199999999999999956 ) ) ;
#184 = CC_DESIGN_APPROVAL ( #33, ( #81 ) ) ;
#185 = CARTESIAN_POINT ( 'NONE',  ( 0.000000000000000000, 0.000000000000000000, 125.0000000000000000 ) ) ;
#186 = FACE_BOUND ( 'NONE', #46, .T. ) ;
#187 = AXIS2_PLACEMENT_3D ( 'NONE', #206, #39, #233 ) ;
#188 = DIRECTION ( 'NONE',  ( -0.000000000000000000, -0.000000000000000000, -1.000000000000000000 ) ) ;
#189 = APPROVAL ( #82, 'NEURÈENÝ' ) ;
#190 = DIRECTION ( 'NONE',  ( 1.000000000000000000, 0.000000000000000000, 0.000000000000000000 ) ) ;
#191 = PLANE ( 'NONE',  #167 ) ;
#192 = CARTESIAN_POINT ( 'NONE',  ( 0.000000000000000000, 0.000000000000000000, 125.0000000000000000 ) ) ;
#193 = PERSON_AND_ORGANIZATION_ROLE ( 'design_owner' ) ;
#194 = VERTEX_POINT ( 'NONE', #136 ) ;
#195 = CLOSED_SHELL ( 'NONE', ( #203, #100, #2, #157, #230, #64, #172 ) ) ;
#196 = DATE_AND_TIME ( #125, #238 ) ;
#197 = ORIENTED_EDGE ( 'NONE', *, *, #35, .T. ) ;
#198 = CARTESIAN_POINT ( 'NONE',  ( 0.000000000000000000, 0.000000000000000000, 0.000000000000000000 ) ) ;
#199 = EDGE_LOOP ( 'NONE', ( #161, #51, #145, #137 ) ) ;
#200 = LOCAL_TIME ( 18, 28, 33.00000000000000000, #144 ) ;
#201 = DIRECTION ( 'NONE',  ( 1.000000000000000000, 0.000000000000000000, 0.000000000000000000 ) ) ;
#202 = CYLINDRICAL_SURFACE ( 'NONE', #117, 1.250000000000000000 ) ;
#203 = ADVANCED_FACE ( 'NONE', ( #98 ), #80, .T. ) ;
#204 = CYLINDRICAL_SURFACE ( 'NONE', #251, 0.5000000000000000000 ) ;
#205 = APPROVAL_PERSON_ORGANIZATION ( #177, #33, #9 ) ;
#206 = CARTESIAN_POINT ( 'NONE',  ( 0.000000000000000000, 0.000000000000000000, 1.199999999999999956 ) ) ;
#207 = DIRECTION ( 'NONE',  ( 0.000000000000000000, 0.000000000000000000, 1.000000000000000000 ) ) ;
#208 = CARTESIAN_POINT ( 'NONE',  ( 0.000000000000000000, 0.000000000000000000, 125.0000000000000000 ) ) ;
#209 = CC_DESIGN_DATE_AND_TIME_ASSIGNMENT ( #196, #108, ( #81 ) ) ;
#210 = DIRECTION ( 'NONE',  ( 0.000000000000000000, 0.000000000000000000, 1.000000000000000000 ) ) ;
#211 = CARTESIAN_POINT ( 'NONE',  ( 1.250000000000000000, 1.530808498934191571E-16, 1.199999999999999956 ) ) ;
#212 = CARTESIAN_POINT ( 'NONE',  ( 0.5000000000000000000, 6.123233995736766036E-17, 1.199999999999999956 ) ) ;
#213 = ORIENTED_EDGE ( 'NONE', *, *, #97, .T. ) ;
#214 = ORIENTED_EDGE ( 'NONE', *, *, #35, .F. ) ;
#215 = CALENDAR_DATE ( 2023, 13, 2 ) ;
#216 = EDGE_CURVE ( 'NONE', #241, #219, #153, .T. ) ;
#217 = VERTEX_POINT ( 'NONE', #212 ) ;
#218 = PERSON_AND_ORGANIZATION_ROLE ( 'design_supplier' ) ;
#219 = VERTEX_POINT ( 'NONE', #118 ) ;
#220 = PERSON_AND_ORGANIZATION_ROLE ( 'classification_officer' ) ;
#221 = ORIENTED_EDGE ( 'NONE', *, *, #119, .F. ) ;
#222 = EDGE_CURVE ( 'NONE', #176, #68, #111, .T. ) ;
#223 = APPROVAL_ROLE ( '' ) ;
#224 = CC_DESIGN_PERSON_AND_ORGANIZATION_ASSIGNMENT ( #142, #218, ( #95 ) ) ;
#225 = EDGE_LOOP ( 'NONE', ( #213, #120 ) ) ;
#226 = APPROVAL_PERSON_ORGANIZATION ( #47, #254, #223 ) ;
#227 = DIRECTION ( 'NONE',  ( -0.000000000000000000, -0.000000000000000000, -1.000000000000000000 ) ) ;
#228 = LINE ( 'NONE', #229, #54 ) ;
#229 = CARTESIAN_POINT ( 'NONE',  ( -0.5000000000000000000, 0.000000000000000000, 125.0000000000000000 ) ) ;
#230 = ADVANCED_FACE ( 'NONE', ( #234 ), #191, .F. ) ;
#231 = DIRECTION ( 'NONE',  ( 1.000000000000000000, 0.000000000000000000, 0.000000000000000000 ) ) ;
#232 = CIRCLE ( 'NONE', #171, 0.5000000000000000000 ) ;
#233 = DIRECTION ( 'NONE',  ( 1.000000000000000000, 0.000000000000000000, 0.000000000000000000 ) ) ;
#234 = FACE_OUTER_BOUND ( 'NONE', #85, .T. ) ;
#235 = CARTESIAN_POINT ( 'NONE',  ( 0.5000000000000000000, 6.123233995736766036E-17, 125.0000000000000000 ) ) ;
#236 = EDGE_LOOP ( 'NONE', ( #11, #123, #179, #107 ) ) ;
#237 = CC_DESIGN_SECURITY_CLASSIFICATION ( #81, ( #95 ) ) ;
#238 = LOCAL_TIME ( 18, 28, 33.00000000000000000, #49 ) ;
#239 =( LENGTH_UNIT ( ) NAMED_UNIT ( * ) SI_UNIT ( .MILLI., .METRE. ) );
#240 = PERSON_AND_ORGANIZATION ( #5, #19 ) ;
#241 = VERTEX_POINT ( 'NONE', #169 ) ;
#242 = DATE_AND_TIME ( #215, #124 ) ;
#243 = ORIENTED_EDGE ( 'NONE', *, *, #244, .F. ) ;
#244 = EDGE_CURVE ( 'NONE', #219, #30, #28, .T. ) ;
#245 =( NAMED_UNIT ( * ) SI_UNIT ( $, .STERADIAN. ) SOLID_ANGLE_UNIT ( ) );
#246 = CIRCLE ( 'NONE', #130, 1.250000000000000000 ) ;
#247 = APPLICATION_CONTEXT ( 'configuration controlled 3d designs of mechanical parts and assemblies' ) ;
#248 = DIRECTION ( 'NONE',  ( 0.000000000000000000, 0.000000000000000000, 1.000000000000000000 ) ) ;
#249 = CC_DESIGN_APPROVAL ( #254, ( #138 ) ) ;
#250 = DIRECTION ( 'NONE',  ( 1.000000000000000000, 0.000000000000000000, -0.000000000000000000 ) ) ;
#251 = AXIS2_PLACEMENT_3D ( 'NONE', #185, #131, #253 ) ;
#252 = CARTESIAN_POINT ( 'NONE',  ( -1.250000000000000000, 0.000000000000000000, 1.199999999999999956 ) ) ;
#253 = DIRECTION ( 'NONE',  ( -1.000000000000000000, 0.000000000000000000, 0.000000000000000000 ) ) ;
#254 = APPROVAL ( #128, 'NEURÈENÝ' ) ;
#255 = AXIS2_PLACEMENT_3D ( 'NONE', #113, #166, #148 ) ;
ENDSEC;
END-ISO-10303-21;
