ISO-10303-21;
HEADER;
FILE_DESCRIPTION (( 'STEP AP203' ),
    '1' );
FILE_NAME ('6545.STEP',
    '2023-02-13T11:30:38',
    ( '' ),
    ( '' ),
    'SwSTEP 2.0',
    'SolidWorks 2019',
    '' );
FILE_SCHEMA (( 'CONFIG_CONTROL_DESIGN' ));
ENDSEC;

DATA;
#1 = CC_DESIGN_APPROVAL ( #55, ( #133 ) ) ;
#2 = CC_DESIGN_DATE_AND_TIME_ASSIGNMENT ( #145, #100, ( #34 ) ) ;
#3 =( LENGTH_UNIT ( ) NAMED_UNIT ( * ) SI_UNIT ( .MILLI., .METRE. ) );
#4 = CALENDAR_DATE ( 2023, 13, 2 ) ;
#5 = CIRCLE ( 'NONE', #194, 6.000000000000000888 ) ;
#6 = PERSON_AND_ORGANIZATION_ROLE ( 'design_supplier' ) ;
#7 =( GEOMETRIC_REPRESENTATION_CONTEXT ( 3 ) GLOBAL_UNCERTAINTY_ASSIGNED_CONTEXT ( ( #47 ) ) GLOBAL_UNIT_ASSIGNED_CONTEXT ( ( #3, #170, #237 ) ) REPRESENTATION_CONTEXT ( 'NONE', 'WORKASPACE' ) );
#8 = ORIENTED_EDGE ( 'NONE', *, *, #227, .F. ) ;
#9 = LINE ( 'NONE', #129, #119 ) ;
#10 = COORDINATED_UNIVERSAL_TIME_OFFSET ( 1, 0, .AHEAD. ) ;
#11 = CC_DESIGN_PERSON_AND_ORGANIZATION_ASSIGNMENT ( #40, #140, ( #159 ) ) ;
#12 = FACE_OUTER_BOUND ( 'NONE', #158, .T. ) ;
#13 = CARTESIAN_POINT ( 'NONE',  ( -6.000000000000000888, 0.000000000000000000, 6.500000000000000000 ) ) ;
#14 = AXIS2_PLACEMENT_3D ( 'NONE', #131, #197, #247 ) ;
#15 = DIRECTION ( 'NONE',  ( 0.000000000000000000, 0.000000000000000000, 1.000000000000000000 ) ) ;
#16 = CARTESIAN_POINT ( 'NONE',  ( 9.000000000000000000, 1.102182119232617517E-15, 0.000000000000000000 ) ) ;
#17 = EDGE_CURVE ( 'NONE', #246, #147, #242, .T. ) ;
#18 = DIRECTION ( 'NONE',  ( -0.000000000000000000, -0.000000000000000000, -1.000000000000000000 ) ) ;
#19 = CARTESIAN_POINT ( 'NONE',  ( 0.000000000000000000, 0.000000000000000000, 6.500000000000000000 ) ) ;
#20 = AXIS2_PLACEMENT_3D ( 'NONE', #209, #113, #182 ) ;
#21 = APPROVAL_PERSON_ORGANIZATION ( #39, #55, #61 ) ;
#22 = CARTESIAN_POINT ( 'NONE',  ( -6.000000000000000888, 0.000000000000000000, 1000.000000000000000 ) ) ;
#23 = CC_DESIGN_PERSON_AND_ORGANIZATION_ASSIGNMENT ( #125, #6, ( #133 ) ) ;
#24 = APPROVAL_ROLE ( '' ) ;
#25 = CALENDAR_DATE ( 2023, 13, 2 ) ;
#26 = SECURITY_CLASSIFICATION_LEVEL ( 'unclassified' ) ;
#27 = CARTESIAN_POINT ( 'NONE',  ( 0.000000000000000000, 0.000000000000000000, 1000.000000000000000 ) ) ;
#28 = ORIENTED_EDGE ( 'NONE', *, *, #186, .T. ) ;
#29 = AXIS2_PLACEMENT_3D ( 'NONE', #53, #135, #240 ) ;
#30 = EDGE_LOOP ( 'NONE', ( #111, #68 ) ) ;
#31 = PLANE ( 'NONE',  #238 ) ;
#32 = CYLINDRICAL_SURFACE ( 'NONE', #20, 6.000000000000000888 ) ;
#33 = CARTESIAN_POINT ( 'NONE',  ( 0.000000000000000000, 0.000000000000000000, 6.500000000000000000 ) ) ;
#34 = PRODUCT_DEFINITION ( 'NEZNÁMÝ', '', #133, #85 ) ;
#35 = DIRECTION ( 'NONE',  ( 1.000000000000000000, 0.000000000000000000, 0.000000000000000000 ) ) ;
#36 = DIRECTION ( 'NONE',  ( -0.000000000000000000, -0.000000000000000000, -1.000000000000000000 ) ) ;
#37 = APPROVAL_PERSON_ORGANIZATION ( #124, #212, #24 ) ;
#38 = PERSON_AND_ORGANIZATION ( #199, #74 ) ;
#39 = PERSON_AND_ORGANIZATION ( #199, #74 ) ;
#40 = PERSON_AND_ORGANIZATION ( #199, #74 ) ;
#41 = DIRECTION ( 'NONE',  ( 1.000000000000000000, 0.000000000000000000, -0.000000000000000000 ) ) ;
#42 = CC_DESIGN_PERSON_AND_ORGANIZATION_ASSIGNMENT ( #221, #177, ( #34 ) ) ;
#43 = COORDINATED_UNIVERSAL_TIME_OFFSET ( 1, 0, .AHEAD. ) ;
#44 = CARTESIAN_POINT ( 'NONE',  ( -9.000000000000000000, 0.000000000000000000, 0.000000000000000000 ) ) ;
#45 = ORIENTED_EDGE ( 'NONE', *, *, #96, .T. ) ;
#46 = ORIENTED_EDGE ( 'NONE', *, *, #186, .F. ) ;
#47 = UNCERTAINTY_MEASURE_WITH_UNIT (LENGTH_MEASURE( 1.000000000000000082E-05 ), #3, 'distance_accuracy_value', 'NONE');
#48 = ORIENTED_EDGE ( 'NONE', *, *, #17, .T. ) ;
#49 = ADVANCED_FACE ( 'NONE', ( #12 ), #89, .T. ) ;
#50 = ORIENTED_EDGE ( 'NONE', *, *, #216, .T. ) ;
#51 = CIRCLE ( 'NONE', #229, 9.000000000000000000 ) ;
#52 = DIRECTION ( 'NONE',  ( -0.000000000000000000, -0.000000000000000000, -1.000000000000000000 ) ) ;
#53 = CARTESIAN_POINT ( 'NONE',  ( 0.000000000000000000, 0.000000000000000000, 6.500000000000000000 ) ) ;
#54 = DIRECTION ( 'NONE',  ( 0.000000000000000000, 0.000000000000000000, 1.000000000000000000 ) ) ;
#55 = APPROVAL ( #142, 'NEURÈENÝ' ) ;
#56 = CARTESIAN_POINT ( 'NONE',  ( 0.000000000000000000, 0.000000000000000000, 6.500000000000000000 ) ) ;
#57 = PERSON_AND_ORGANIZATION_ROLE ( 'design_owner' ) ;
#58 = CIRCLE ( 'NONE', #97, 9.000000000000000000 ) ;
#59 = DIRECTION ( 'NONE',  ( 1.000000000000000000, 0.000000000000000000, 0.000000000000000000 ) ) ;
#60 = CC_DESIGN_DATE_AND_TIME_ASSIGNMENT ( #220, #106, ( #159 ) ) ;
#61 = APPROVAL_ROLE ( '' ) ;
#62 = CARTESIAN_POINT ( 'NONE',  ( 0.000000000000000000, 0.000000000000000000, 6.500000000000000000 ) ) ;
#63 = DIRECTION ( 'NONE',  ( -0.000000000000000000, -0.000000000000000000, -1.000000000000000000 ) ) ;
#64 = DIRECTION ( 'NONE',  ( 0.000000000000000000, 0.000000000000000000, 1.000000000000000000 ) ) ;
#65 = ORIENTED_EDGE ( 'NONE', *, *, #137, .T. ) ;
#66 = APPROVAL_DATE_TIME ( #245, #249 ) ;
#67 = ORIENTED_EDGE ( 'NONE', *, *, #92, .T. ) ;
#68 = ORIENTED_EDGE ( 'NONE', *, *, #121, .F. ) ;
#69 = LOCAL_TIME ( 12, 30, 38.00000000000000000, #43 ) ;
#70 = DIRECTION ( 'NONE',  ( 0.000000000000000000, 0.000000000000000000, 1.000000000000000000 ) ) ;
#71 = DIRECTION ( 'NONE',  ( 0.000000000000000000, 0.000000000000000000, 1.000000000000000000 ) ) ;
#72 = ADVANCED_FACE ( 'NONE', ( #157, #205 ), #31, .T. ) ;
#73 = AXIS2_PLACEMENT_3D ( 'NONE', #207, #251, #35 ) ;
#74 = ORGANIZATION ( 'NEURÈENÝ', 'NEURÈENÝ', '' ) ;
#75 = ADVANCED_FACE ( 'NONE', ( #206 ), #32, .T. ) ;
#76 = APPLICATION_PROTOCOL_DEFINITION ( 'international standard', 'config_control_design', 1994, #163 ) ;
#77 = ORIENTED_EDGE ( 'NONE', *, *, #137, .F. ) ;
#78 = EDGE_CURVE ( 'NONE', #192, #147, #232, .T. ) ;
#79 = APPROVAL_ROLE ( '' ) ;
#80 = AXIS2_PLACEMENT_3D ( 'NONE', #27, #64, #41 ) ;
#81 = ORIENTED_EDGE ( 'NONE', *, *, #151, .T. ) ;
#82 = ORIENTED_EDGE ( 'NONE', *, *, #121, .T. ) ;
#83 = DATE_AND_TIME ( #102, #69 ) ;
#84 = LINE ( 'NONE', #146, #230 ) ;
#85 = DESIGN_CONTEXT ( 'detailed design', #176, 'design' ) ;
#86 = VERTEX_POINT ( 'NONE', #13 ) ;
#87 = AXIS2_PLACEMENT_3D ( 'NONE', #33, #152, #95 ) ;
#88 = ORIENTED_EDGE ( 'NONE', *, *, #101, .F. ) ;
#89 = CYLINDRICAL_SURFACE ( 'NONE', #29, 9.000000000000000000 ) ;
#90 = DIRECTION ( 'NONE',  ( -1.000000000000000000, 0.000000000000000000, 0.000000000000000000 ) ) ;
#91 = CARTESIAN_POINT ( 'NONE',  ( 6.000000000000000888, 7.347880794884120722E-16, 1000.000000000000000 ) ) ;
#92 = EDGE_CURVE ( 'NONE', #200, #123, #250, .T. ) ;
#93 = AXIS2_PLACEMENT_3D ( 'NONE', #225, #126, #90 ) ;
#94 = MANIFOLD_SOLID_BREP ( 'Pøidat vysunutím3', #110 ) ;
#95 = DIRECTION ( 'NONE',  ( -1.000000000000000000, 0.000000000000000000, 0.000000000000000000 ) ) ;
#96 = EDGE_CURVE ( 'NONE', #156, #86, #5, .T. ) ;
#97 = AXIS2_PLACEMENT_3D ( 'NONE', #228, #70, #204 ) ;
#98 = FACE_OUTER_BOUND ( 'NONE', #195, .T. ) ;
#99 = CIRCLE ( 'NONE', #14, 6.000000000000000888 ) ;
#100 = DATE_TIME_ROLE ( 'creation_date' ) ;
#101 = EDGE_CURVE ( 'NONE', #105, #192, #58, .T. ) ;
#102 = CALENDAR_DATE ( 2023, 13, 2 ) ;
#103 = CC_DESIGN_SECURITY_CLASSIFICATION ( #159, ( #133 ) ) ;
#104 = APPROVAL_DATE_TIME ( #83, #212 ) ;
#105 = VERTEX_POINT ( 'NONE', #136 ) ;
#106 = DATE_TIME_ROLE ( 'classification_date' ) ;
#107 = CC_DESIGN_PERSON_AND_ORGANIZATION_ASSIGNMENT ( #236, #57, ( #164 ) ) ;
#108 = PERSON_AND_ORGANIZATION_ROLE ( 'creator' ) ;
#109 = EDGE_LOOP ( 'NONE', ( #172, #65 ) ) ;
#110 = CLOSED_SHELL ( 'NONE', ( #75, #148, #49, #72, #183, #243, #208 ) ) ;
#111 = ORIENTED_EDGE ( 'NONE', *, *, #17, .F. ) ;
#112 = DIRECTION ( 'NONE',  ( 0.000000000000000000, 0.000000000000000000, 1.000000000000000000 ) ) ;
#113 = DIRECTION ( 'NONE',  ( -0.000000000000000000, -0.000000000000000000, -1.000000000000000000 ) ) ;
#114 = CARTESIAN_POINT ( 'NONE',  ( 0.000000000000000000, 0.000000000000000000, 0.000000000000000000 ) ) ;
#115 = LOCAL_TIME ( 12, 30, 38.00000000000000000, #196 ) ;
#116 = CIRCLE ( 'NONE', #127, 9.000000000000000000 ) ;
#117 = AXIS2_PLACEMENT_3D ( 'NONE', #114, #254, #169 ) ;
#118 = APPROVAL_STATUS ( 'not_yet_approved' ) ;
#119 = VECTOR ( 'NONE', #63, 1000.000000000000000 ) ;
#120 = MECHANICAL_CONTEXT ( 'NONE', #163, 'mechanical' ) ;
#121 = EDGE_CURVE ( 'NONE', #147, #246, #51, .T. ) ;
#122 = DATE_AND_TIME ( #4, #115 ) ;
#123 = VERTEX_POINT ( 'NONE', #91 ) ;
#124 = PERSON_AND_ORGANIZATION ( #199, #74 ) ;
#125 = PERSON_AND_ORGANIZATION ( #199, #74 ) ;
#126 = DIRECTION ( 'NONE',  ( -0.000000000000000000, -0.000000000000000000, -1.000000000000000000 ) ) ;
#127 = AXIS2_PLACEMENT_3D ( 'NONE', #19, #71, #185 ) ;
#128 = ORIENTED_EDGE ( 'NONE', *, *, #78, .T. ) ;
#129 = CARTESIAN_POINT ( 'NONE',  ( -9.000000000000000000, 0.000000000000000000, 6.500000000000000000 ) ) ;
#130 = ORIENTED_EDGE ( 'NONE', *, *, #253, .T. ) ;
#131 = CARTESIAN_POINT ( 'NONE',  ( 0.000000000000000000, 0.000000000000000000, 1000.000000000000000 ) ) ;
#132 = EDGE_LOOP ( 'NONE', ( #46, #201, #161, #81 ) ) ;
#133 = PRODUCT_DEFINITION_FORMATION_WITH_SPECIFIED_SOURCE ( 'LIBOVOLNÝ', '', #164, .NOT_KNOWN. ) ;
#134 = DIRECTION ( 'NONE',  ( 1.000000000000000000, 0.000000000000000000, 0.000000000000000000 ) ) ;
#135 = DIRECTION ( 'NONE',  ( -0.000000000000000000, -0.000000000000000000, -1.000000000000000000 ) ) ;
#136 = CARTESIAN_POINT ( 'NONE',  ( -9.000000000000000000, 0.000000000000000000, 6.500000000000000000 ) ) ;
#137 = EDGE_CURVE ( 'NONE', #192, #105, #116, .T. ) ;
#138 = LINE ( 'NONE', #213, #141 ) ;
#139 = CARTESIAN_POINT ( 'NONE',  ( 0.000000000000000000, 0.000000000000000000, 0.000000000000000000 ) ) ;
#140 = PERSON_AND_ORGANIZATION_ROLE ( 'classification_officer' ) ;
#141 = VECTOR ( 'NONE', #36, 1000.000000000000000 ) ;
#142 = APPROVAL_STATUS ( 'not_yet_approved' ) ;
#143 = PERSON_AND_ORGANIZATION ( #199, #74 ) ;
#144 = COORDINATED_UNIVERSAL_TIME_OFFSET ( 1, 0, .AHEAD. ) ;
#145 = DATE_AND_TIME ( #235, #239 ) ;
#146 = CARTESIAN_POINT ( 'NONE',  ( -6.000000000000000888, 0.000000000000000000, 1000.000000000000000 ) ) ;
#147 = VERTEX_POINT ( 'NONE', #16 ) ;
#148 = ADVANCED_FACE ( 'NONE', ( #211 ), #252, .T. ) ;
#149 = LOCAL_TIME ( 12, 30, 38.00000000000000000, #144 ) ;
#150 = CARTESIAN_POINT ( 'NONE',  ( 6.000000000000000888, 7.347880794884120722E-16, 6.500000000000000000 ) ) ;
#151 = EDGE_CURVE ( 'NONE', #86, #156, #190, .T. ) ;
#152 = DIRECTION ( 'NONE',  ( -0.000000000000000000, -0.000000000000000000, -1.000000000000000000 ) ) ;
#153 = PRODUCT_DEFINITION_SHAPE ( 'NONE', 'NONE',  #34 ) ;
#154 = CALENDAR_DATE ( 2023, 13, 2 ) ;
#155 = CC_DESIGN_APPROVAL ( #249, ( #34 ) ) ;
#156 = VERTEX_POINT ( 'NONE', #150 ) ;
#157 = FACE_BOUND ( 'NONE', #248, .T. ) ;
#158 = EDGE_LOOP ( 'NONE', ( #222, #88, #130, #48 ) ) ;
#159 = SECURITY_CLASSIFICATION ( '', '', #26 ) ;
#160 = ORIENTED_EDGE ( 'NONE', *, *, #216, .F. ) ;
#161 = ORIENTED_EDGE ( 'NONE', *, *, #227, .T. ) ;
#162 = DIRECTION ( 'NONE',  ( 1.000000000000000000, 0.000000000000000000, 0.000000000000000000 ) ) ;
#163 = APPLICATION_CONTEXT ( 'configuration controlled 3d designs of mechanical parts and assemblies' ) ;
#164 = PRODUCT ( '6545', '6545', '', ( #120 ) ) ;
#165 = PRODUCT_RELATED_PRODUCT_CATEGORY ( 'detail', '', ( #164 ) ) ;
#166 = FACE_OUTER_BOUND ( 'NONE', #30, .T. ) ;
#167 = CARTESIAN_POINT ( 'NONE',  ( 0.000000000000000000, 0.000000000000000000, 1000.000000000000000 ) ) ;
#168 = APPROVAL_PERSON_ORGANIZATION ( #38, #249, #79 ) ;
#169 = DIRECTION ( 'NONE',  ( 1.000000000000000000, 0.000000000000000000, -0.000000000000000000 ) ) ;
#170 =( NAMED_UNIT ( * ) PLANE_ANGLE_UNIT ( ) SI_UNIT ( $, .RADIAN. ) );
#171 = VECTOR ( 'NONE', #18, 1000.000000000000000 ) ;
#172 = ORIENTED_EDGE ( 'NONE', *, *, #101, .T. ) ;
#173 = APPROVAL_DATE_TIME ( #122, #55 ) ;
#174 = AXIS2_PLACEMENT_3D ( 'NONE', #139, #191, #59 ) ;
#175 = CARTESIAN_POINT ( 'NONE',  ( 0.000000000000000000, 0.000000000000000000, 0.000000000000000000 ) ) ;
#176 = APPLICATION_CONTEXT ( 'configuration controlled 3d designs of mechanical parts and assemblies' ) ;
#177 = PERSON_AND_ORGANIZATION_ROLE ( 'creator' ) ;
#178 = ORIENTED_EDGE ( 'NONE', *, *, #151, .F. ) ;
#179 = DIRECTION ( 'NONE',  ( 0.000000000000000000, 0.000000000000000000, 1.000000000000000000 ) ) ;
#180 = DIRECTION ( 'NONE',  ( 0.000000000000000000, 0.000000000000000000, 1.000000000000000000 ) ) ;
#181 = DIRECTION ( 'NONE',  ( 1.000000000000000000, 0.000000000000000000, -0.000000000000000000 ) ) ;
#182 = DIRECTION ( 'NONE',  ( -1.000000000000000000, 0.000000000000000000, 0.000000000000000000 ) ) ;
#183 = ADVANCED_FACE ( 'NONE', ( #166 ), #234, .F. ) ;
#184 = CARTESIAN_POINT ( 'NONE',  ( 0.000000000000000000, 0.000000000000000000, 0.000000000000000000 ) ) ;
#185 = DIRECTION ( 'NONE',  ( 1.000000000000000000, 0.000000000000000000, 0.000000000000000000 ) ) ;
#186 = EDGE_CURVE ( 'NONE', #123, #156, #138, .T. ) ;
#187 = CARTESIAN_POINT ( 'NONE',  ( 9.000000000000000000, 1.102182119232617517E-15, 6.500000000000000000 ) ) ;
#188 = CC_DESIGN_PERSON_AND_ORGANIZATION_ASSIGNMENT ( #143, #108, ( #133 ) ) ;
#189 = AXIS2_PLACEMENT_3D ( 'NONE', #167, #54, #134 ) ;
#190 = CIRCLE ( 'NONE', #73, 6.000000000000000888 ) ;
#191 = DIRECTION ( 'NONE',  ( 0.000000000000000000, 0.000000000000000000, 1.000000000000000000 ) ) ;
#192 = VERTEX_POINT ( 'NONE', #187 ) ;
#193 = SHAPE_DEFINITION_REPRESENTATION ( #153, #231 ) ;
#194 = AXIS2_PLACEMENT_3D ( 'NONE', #56, #180, #162 ) ;
#195 = EDGE_LOOP ( 'NONE', ( #67, #50 ) ) ;
#196 = COORDINATED_UNIVERSAL_TIME_OFFSET ( 1, 0, .AHEAD. ) ;
#197 = DIRECTION ( 'NONE',  ( 0.000000000000000000, 0.000000000000000000, 1.000000000000000000 ) ) ;
#198 = EDGE_LOOP ( 'NONE', ( #160, #28, #45, #8 ) ) ;
#199 = PERSON ( 'NEURÈENÝ', 'NEURÈENÝ', 'NEURÈENÝ', ('NEURÈENÝ'), ('NEURÈENÝ'), ('NEURÈENÝ') ) ;
#200 = VERTEX_POINT ( 'NONE', #22 ) ;
#201 = ORIENTED_EDGE ( 'NONE', *, *, #92, .F. ) ;
#202 = ORIENTED_EDGE ( 'NONE', *, *, #96, .F. ) ;
#203 = FACE_OUTER_BOUND ( 'NONE', #132, .T. ) ;
#204 = DIRECTION ( 'NONE',  ( 1.000000000000000000, 0.000000000000000000, 0.000000000000000000 ) ) ;
#205 = FACE_OUTER_BOUND ( 'NONE', #109, .T. ) ;
#206 = FACE_OUTER_BOUND ( 'NONE', #198, .T. ) ;
#207 = CARTESIAN_POINT ( 'NONE',  ( 0.000000000000000000, 0.000000000000000000, 6.500000000000000000 ) ) ;
#208 = ADVANCED_FACE ( 'NONE', ( #98 ), #255, .T. ) ;
#209 = CARTESIAN_POINT ( 'NONE',  ( 0.000000000000000000, 0.000000000000000000, 1000.000000000000000 ) ) ;
#210 = CARTESIAN_POINT ( 'NONE',  ( 9.000000000000000000, 1.102182119232617517E-15, 6.500000000000000000 ) ) ;
#211 = FACE_OUTER_BOUND ( 'NONE', #244, .T. ) ;
#212 = APPROVAL ( #217, 'NEURÈENÝ' ) ;
#213 = CARTESIAN_POINT ( 'NONE',  ( 6.000000000000000888, 7.347880794884120722E-16, 1000.000000000000000 ) ) ;
#214 = APPLICATION_PROTOCOL_DEFINITION ( 'international standard', 'config_control_design', 1994, #176 ) ;
#215 = CC_DESIGN_APPROVAL ( #212, ( #159 ) ) ;
#216 = EDGE_CURVE ( 'NONE', #123, #200, #99, .T. ) ;
#217 = APPROVAL_STATUS ( 'not_yet_approved' ) ;
#218 = COORDINATED_UNIVERSAL_TIME_OFFSET ( 1, 0, .AHEAD. ) ;
#219 = AXIS2_PLACEMENT_3D ( 'NONE', #175, #179, #226 ) ;
#220 = DATE_AND_TIME ( #154, #149 ) ;
#221 = PERSON_AND_ORGANIZATION ( #199, #74 ) ;
#222 = ORIENTED_EDGE ( 'NONE', *, *, #78, .F. ) ;
#223 = LOCAL_TIME ( 12, 30, 38.00000000000000000, #218 ) ;
#224 = ORIENTED_EDGE ( 'NONE', *, *, #253, .F. ) ;
#225 = CARTESIAN_POINT ( 'NONE',  ( 0.000000000000000000, 0.000000000000000000, 1000.000000000000000 ) ) ;
#226 = DIRECTION ( 'NONE',  ( 1.000000000000000000, 0.000000000000000000, 0.000000000000000000 ) ) ;
#227 = EDGE_CURVE ( 'NONE', #200, #86, #84, .T. ) ;
#228 = CARTESIAN_POINT ( 'NONE',  ( 0.000000000000000000, 0.000000000000000000, 6.500000000000000000 ) ) ;
#229 = AXIS2_PLACEMENT_3D ( 'NONE', #184, #15, #233 ) ;
#230 = VECTOR ( 'NONE', #52, 1000.000000000000000 ) ;
#231 = ADVANCED_BREP_SHAPE_REPRESENTATION ( '6545', ( #94, #174 ), #7 ) ;
#232 = LINE ( 'NONE', #210, #171 ) ;
#233 = DIRECTION ( 'NONE',  ( 1.000000000000000000, 0.000000000000000000, 0.000000000000000000 ) ) ;
#234 = PLANE ( 'NONE',  #117 ) ;
#235 = CALENDAR_DATE ( 2023, 13, 2 ) ;
#236 = PERSON_AND_ORGANIZATION ( #199, #74 ) ;
#237 =( NAMED_UNIT ( * ) SI_UNIT ( $, .STERADIAN. ) SOLID_ANGLE_UNIT ( ) );
#238 = AXIS2_PLACEMENT_3D ( 'NONE', #62, #112, #181 ) ;
#239 = LOCAL_TIME ( 12, 30, 38.00000000000000000, #10 ) ;
#240 = DIRECTION ( 'NONE',  ( -1.000000000000000000, 0.000000000000000000, 0.000000000000000000 ) ) ;
#241 = CYLINDRICAL_SURFACE ( 'NONE', #93, 6.000000000000000888 ) ;
#242 = CIRCLE ( 'NONE', #219, 9.000000000000000000 ) ;
#243 = ADVANCED_FACE ( 'NONE', ( #203 ), #241, .T. ) ;
#244 = EDGE_LOOP ( 'NONE', ( #77, #128, #82, #224 ) ) ;
#245 = DATE_AND_TIME ( #25, #223 ) ;
#246 = VERTEX_POINT ( 'NONE', #44 ) ;
#247 = DIRECTION ( 'NONE',  ( 1.000000000000000000, 0.000000000000000000, 0.000000000000000000 ) ) ;
#248 = EDGE_LOOP ( 'NONE', ( #178, #202 ) ) ;
#249 = APPROVAL ( #118, 'NEURÈENÝ' ) ;
#250 = CIRCLE ( 'NONE', #189, 6.000000000000000888 ) ;
#251 = DIRECTION ( 'NONE',  ( 0.000000000000000000, 0.000000000000000000, 1.000000000000000000 ) ) ;
#252 = CYLINDRICAL_SURFACE ( 'NONE', #87, 9.000000000000000000 ) ;
#253 = EDGE_CURVE ( 'NONE', #105, #246, #9, .T. ) ;
#254 = DIRECTION ( 'NONE',  ( 0.000000000000000000, 0.000000000000000000, 1.000000000000000000 ) ) ;
#255 = PLANE ( 'NONE',  #80 ) ;
ENDSEC;
END-ISO-10303-21;
