ISO-10303-21;
HEADER;
FILE_DESCRIPTION (( 'STEP AP203' ),
    '1' );
FILE_NAME ('29ed.STEP',
    '2023-02-13T16:34:07',
    ( '' ),
    ( '' ),
    'SwSTEP 2.0',
    'SolidWorks 2019',
    '' );
FILE_SCHEMA (( 'CONFIG_CONTROL_DESIGN' ));
ENDSEC;

DATA;
#1 = DIRECTION ( 'NONE',  ( 1.000000000000000000, 0.000000000000000000, 0.000000000000000000 ) ) ;
#2 = EDGE_CURVE ( 'NONE', #227, #244, #192, .T. ) ;
#3 = DIRECTION ( 'NONE',  ( -0.000000000000000000, -0.000000000000000000, -1.000000000000000000 ) ) ;
#4 = PERSON_AND_ORGANIZATION_ROLE ( 'creator' ) ;
#5 = ORIENTED_EDGE ( 'NONE', *, *, #126, .F. ) ;
#6 = EDGE_LOOP ( 'NONE', ( #203, #68 ) ) ;
#7 = EDGE_LOOP ( 'NONE', ( #187, #168, #43, #66 ) ) ;
#8 = APPROVAL ( #38, 'NEURÈENÝ' ) ;
#9 = DIRECTION ( 'NONE',  ( 1.000000000000000000, 0.000000000000000000, -0.000000000000000000 ) ) ;
#10 = EDGE_CURVE ( 'NONE', #205, #222, #107, .T. ) ;
#11 = DIRECTION ( 'NONE',  ( -0.000000000000000000, -0.000000000000000000, -1.000000000000000000 ) ) ;
#12 = CC_DESIGN_APPROVAL ( #253, ( #185 ) ) ;
#13 = CARTESIAN_POINT ( 'NONE',  ( 0.000000000000000000, 0.000000000000000000, 315.0000000000000000 ) ) ;
#14 = DIRECTION ( 'NONE',  ( 1.000000000000000000, 0.000000000000000000, 0.000000000000000000 ) ) ;
#15 = CARTESIAN_POINT ( 'NONE',  ( 0.000000000000000000, 0.000000000000000000, 315.0000000000000000 ) ) ;
#16 = ADVANCED_FACE ( 'NONE', ( #224 ), #156, .T. ) ;
#17 = DATE_AND_TIME ( #198, #163 ) ;
#18 = DATE_AND_TIME ( #219, #135 ) ;
#19 = CIRCLE ( 'NONE', #171, 4.000000000000000000 ) ;
#20 = DIRECTION ( 'NONE',  ( 1.000000000000000000, 0.000000000000000000, 0.000000000000000000 ) ) ;
#21 = APPROVAL ( #67, 'NEURÈENÝ' ) ;
#22 = PERSON_AND_ORGANIZATION ( #52, #230 ) ;
#23 = EDGE_LOOP ( 'NONE', ( #81, #150 ) ) ;
#24 = CIRCLE ( 'NONE', #236, 2.100000000000000089 ) ;
#25 = ORIENTED_EDGE ( 'NONE', *, *, #218, .F. ) ;
#26 = PERSON_AND_ORGANIZATION ( #52, #230 ) ;
#27 = EDGE_CURVE ( 'NONE', #172, #205, #194, .T. ) ;
#28 = DIRECTION ( 'NONE',  ( 0.000000000000000000, 0.000000000000000000, 1.000000000000000000 ) ) ;
#29 = ORIENTED_EDGE ( 'NONE', *, *, #93, .T. ) ;
#30 = CC_DESIGN_PERSON_AND_ORGANIZATION_ASSIGNMENT ( #26, #101, ( #185 ) ) ;
#31 = AXIS2_PLACEMENT_3D ( 'NONE', #207, #237, #95 ) ;
#32 = CARTESIAN_POINT ( 'NONE',  ( 2.100000000000000089, 2.571758278209441957E-16, 315.0000000000000000 ) ) ;
#33 = FACE_OUTER_BOUND ( 'NONE', #130, .T. ) ;
#34 = CARTESIAN_POINT ( 'NONE',  ( 0.000000000000000000, 0.000000000000000000, 4.000000000000000000 ) ) ;
#35 = DIRECTION ( 'NONE',  ( -0.000000000000000000, -0.000000000000000000, -1.000000000000000000 ) ) ;
#36 = FACE_OUTER_BOUND ( 'NONE', #83, .T. ) ;
#37 = PERSON_AND_ORGANIZATION ( #52, #230 ) ;
#38 = APPROVAL_STATUS ( 'not_yet_approved' ) ;
#39 = EDGE_CURVE ( 'NONE', #204, #222, #115, .T. ) ;
#40 = APPROVAL_STATUS ( 'not_yet_approved' ) ;
#41 = APPROVAL_PERSON_ORGANIZATION ( #146, #253, #98 ) ;
#42 = EDGE_LOOP ( 'NONE', ( #223, #123, #63, #128 ) ) ;
#43 = ORIENTED_EDGE ( 'NONE', *, *, #27, .T. ) ;
#44 = CC_DESIGN_PERSON_AND_ORGANIZATION_ASSIGNMENT ( #169, #62, ( #167 ) ) ;
#45 = COORDINATED_UNIVERSAL_TIME_OFFSET ( 1, 0, .AHEAD. ) ;
#46 = CC_DESIGN_APPROVAL ( #21, ( #167 ) ) ;
#47 = EDGE_CURVE ( 'NONE', #172, #204, #241, .T. ) ;
#48 = ORIENTED_EDGE ( 'NONE', *, *, #39, .T. ) ;
#49 = CYLINDRICAL_SURFACE ( 'NONE', #202, 4.000000000000000000 ) ;
#50 = CIRCLE ( 'NONE', #152, 2.100000000000000089 ) ;
#51 = CARTESIAN_POINT ( 'NONE',  ( 0.000000000000000000, 0.000000000000000000, 4.000000000000000000 ) ) ;
#52 = PERSON ( 'NEURÈENÝ', 'NEURÈENÝ', 'NEURÈENÝ', ('NEURÈENÝ'), ('NEURÈENÝ'), ('NEURÈENÝ') ) ;
#53 = DIRECTION ( 'NONE',  ( -1.000000000000000000, 0.000000000000000000, 0.000000000000000000 ) ) ;
#54 = DESIGN_CONTEXT ( 'detailed design', #141, 'design' ) ;
#55 = CARTESIAN_POINT ( 'NONE',  ( -2.100000000000000089, 0.000000000000000000, 4.000000000000000000 ) ) ;
#56 = LOCAL_TIME ( 17, 34, 7.000000000000000000, #165 ) ;
#57 = PRODUCT_DEFINITION ( 'NEZNÁMÝ', '', #185, #54 ) ;
#58 = CARTESIAN_POINT ( 'NONE',  ( -4.000000000000000000, 0.000000000000000000, 0.000000000000000000 ) ) ;
#59 = CC_DESIGN_SECURITY_CLASSIFICATION ( #167, ( #185 ) ) ;
#60 = COORDINATED_UNIVERSAL_TIME_OFFSET ( 1, 0, .AHEAD. ) ;
#61 = APPROVAL_DATE_TIME ( #255, #8 ) ;
#62 = PERSON_AND_ORGANIZATION_ROLE ( 'classification_officer' ) ;
#63 = ORIENTED_EDGE ( 'NONE', *, *, #126, .T. ) ;
#64 = ORIENTED_EDGE ( 'NONE', *, *, #73, .T. ) ;
#65 = ORIENTED_EDGE ( 'NONE', *, *, #178, .T. ) ;
#66 = ORIENTED_EDGE ( 'NONE', *, *, #10, .T. ) ;
#67 = APPROVAL_STATUS ( 'not_yet_approved' ) ;
#68 = ORIENTED_EDGE ( 'NONE', *, *, #2, .T. ) ;
#69 = LINE ( 'NONE', #254, #87 ) ;
#70 = DIRECTION ( 'NONE',  ( 0.000000000000000000, 0.000000000000000000, 1.000000000000000000 ) ) ;
#71 = DIRECTION ( 'NONE',  ( 0.000000000000000000, 0.000000000000000000, 1.000000000000000000 ) ) ;
#72 = DIRECTION ( 'NONE',  ( 0.000000000000000000, 0.000000000000000000, 1.000000000000000000 ) ) ;
#73 = EDGE_CURVE ( 'NONE', #222, #205, #24, .T. ) ;
#74 = CARTESIAN_POINT ( 'NONE',  ( -2.100000000000000089, 0.000000000000000000, 315.0000000000000000 ) ) ;
#75 = AXIS2_PLACEMENT_3D ( 'NONE', #88, #28, #246 ) ;
#76 = CARTESIAN_POINT ( 'NONE',  ( 0.000000000000000000, 0.000000000000000000, 4.000000000000000000 ) ) ;
#77 = CYLINDRICAL_SURFACE ( 'NONE', #184, 4.000000000000000000 ) ;
#78 = ADVANCED_FACE ( 'NONE', ( #112, #158 ), #157, .T. ) ;
#79 = AXIS2_PLACEMENT_3D ( 'NONE', #139, #114, #94 ) ;
#80 =( GEOMETRIC_REPRESENTATION_CONTEXT ( 3 ) GLOBAL_UNCERTAINTY_ASSIGNED_CONTEXT ( ( #234 ) ) GLOBAL_UNIT_ASSIGNED_CONTEXT ( ( #161, #142, #200 ) ) REPRESENTATION_CONTEXT ( 'NONE', 'WORKASPACE' ) );
#81 = ORIENTED_EDGE ( 'NONE', *, *, #10, .F. ) ;
#82 = ADVANCED_FACE ( 'NONE', ( #110 ), #214, .T. ) ;
#83 = EDGE_LOOP ( 'NONE', ( #85, #48, #64, #102 ) ) ;
#84 = SECURITY_CLASSIFICATION_LEVEL ( 'unclassified' ) ;
#85 = ORIENTED_EDGE ( 'NONE', *, *, #178, .F. ) ;
#86 = SHAPE_DEFINITION_REPRESENTATION ( #208, #106 ) ;
#87 = VECTOR ( 'NONE', #11, 1000.000000000000000 ) ;
#88 = CARTESIAN_POINT ( 'NONE',  ( 0.000000000000000000, 0.000000000000000000, 4.000000000000000000 ) ) ;
#89 = LINE ( 'NONE', #249, #174 ) ;
#90 = CC_DESIGN_PERSON_AND_ORGANIZATION_ASSIGNMENT ( #121, #4, ( #185 ) ) ;
#91 = CARTESIAN_POINT ( 'NONE',  ( 0.000000000000000000, 0.000000000000000000, 0.000000000000000000 ) ) ;
#92 = DIRECTION ( 'NONE',  ( 1.000000000000000000, 0.000000000000000000, -0.000000000000000000 ) ) ;
#93 = EDGE_CURVE ( 'NONE', #227, #149, #89, .T. ) ;
#94 = DIRECTION ( 'NONE',  ( 1.000000000000000000, 0.000000000000000000, 0.000000000000000000 ) ) ;
#95 = DIRECTION ( 'NONE',  ( -1.000000000000000000, 0.000000000000000000, 0.000000000000000000 ) ) ;
#96 = AXIS2_PLACEMENT_3D ( 'NONE', #191, #138, #53 ) ;
#97 = DIRECTION ( 'NONE',  ( -1.000000000000000000, 0.000000000000000000, 0.000000000000000000 ) ) ;
#98 = APPROVAL_ROLE ( '' ) ;
#99 = DATE_TIME_ROLE ( 'creation_date' ) ;
#100 = FACE_OUTER_BOUND ( 'NONE', #170, .T. ) ;
#101 = PERSON_AND_ORGANIZATION_ROLE ( 'design_supplier' ) ;
#102 = ORIENTED_EDGE ( 'NONE', *, *, #27, .F. ) ;
#103 = ADVANCED_FACE ( 'NONE', ( #231 ), #49, .T. ) ;
#104 = ORIENTED_EDGE ( 'NONE', *, *, #2, .F. ) ;
#105 = VERTEX_POINT ( 'NONE', #58 ) ;
#106 = ADVANCED_BREP_SHAPE_REPRESENTATION ( '29ed', ( #132, #197 ), #80 ) ;
#107 = CIRCLE ( 'NONE', #75, 2.100000000000000089 ) ;
#108 = EDGE_LOOP ( 'NONE', ( #151, #65 ) ) ;
#109 = ADVANCED_FACE ( 'NONE', ( #36 ), #206, .T. ) ;
#110 = FACE_OUTER_BOUND ( 'NONE', #108, .T. ) ;
#111 = PLANE ( 'NONE',  #166 ) ;
#112 = FACE_BOUND ( 'NONE', #23, .T. ) ;
#113 = AXIS2_PLACEMENT_3D ( 'NONE', #13, #70, #14 ) ;
#114 = DIRECTION ( 'NONE',  ( 0.000000000000000000, 0.000000000000000000, 1.000000000000000000 ) ) ;
#115 = LINE ( 'NONE', #32, #133 ) ;
#116 = CALENDAR_DATE ( 2023, 13, 2 ) ;
#117 = CIRCLE ( 'NONE', #211, 4.000000000000000000 ) ;
#118 = APPROVAL_PERSON_ORGANIZATION ( #147, #8, #239 ) ;
#119 = PERSON_AND_ORGANIZATION_ROLE ( 'creator' ) ;
#120 = APPROVAL_DATE_TIME ( #18, #253 ) ;
#121 = PERSON_AND_ORGANIZATION ( #52, #230 ) ;
#122 = APPLICATION_PROTOCOL_DEFINITION ( 'international standard', 'config_control_design', 1994, #141 ) ;
#123 = ORIENTED_EDGE ( 'NONE', *, *, #162, .F. ) ;
#124 = APPLICATION_CONTEXT ( 'configuration controlled 3d designs of mechanical parts and assemblies' ) ;
#125 = CARTESIAN_POINT ( 'NONE',  ( 0.000000000000000000, 0.000000000000000000, 4.000000000000000000 ) ) ;
#126 = EDGE_CURVE ( 'NONE', #244, #105, #69, .T. ) ;
#127 = CALENDAR_DATE ( 2023, 13, 2 ) ;
#128 = ORIENTED_EDGE ( 'NONE', *, *, #210, .T. ) ;
#129 = APPROVAL_DATE_TIME ( #148, #21 ) ;
#130 = EDGE_LOOP ( 'NONE', ( #131, #25 ) ) ;
#131 = ORIENTED_EDGE ( 'NONE', *, *, #210, .F. ) ;
#132 = MANIFOLD_SOLID_BREP ( 'Pøidat vysunutím3', #221 ) ;
#133 = VECTOR ( 'NONE', #136, 1000.000000000000000 ) ;
#134 = DIRECTION ( 'NONE',  ( -1.000000000000000000, 0.000000000000000000, 0.000000000000000000 ) ) ;
#135 = LOCAL_TIME ( 17, 34, 7.000000000000000000, #60 ) ;
#136 = DIRECTION ( 'NONE',  ( -0.000000000000000000, -0.000000000000000000, -1.000000000000000000 ) ) ;
#137 = ADVANCED_FACE ( 'NONE', ( #33 ), #111, .F. ) ;
#138 = DIRECTION ( 'NONE',  ( -0.000000000000000000, -0.000000000000000000, -1.000000000000000000 ) ) ;
#139 = CARTESIAN_POINT ( 'NONE',  ( 0.000000000000000000, 0.000000000000000000, 0.000000000000000000 ) ) ;
#140 = DIRECTION ( 'NONE',  ( 0.000000000000000000, 0.000000000000000000, 1.000000000000000000 ) ) ;
#141 = APPLICATION_CONTEXT ( 'configuration controlled 3d designs of mechanical parts and assemblies' ) ;
#142 =( NAMED_UNIT ( * ) PLANE_ANGLE_UNIT ( ) SI_UNIT ( $, .RADIAN. ) );
#143 = AXIS2_PLACEMENT_3D ( 'NONE', #15, #193, #9 ) ;
#144 = APPROVAL_PERSON_ORGANIZATION ( #243, #21, #183 ) ;
#145 = APPLICATION_PROTOCOL_DEFINITION ( 'international standard', 'config_control_design', 1994, #124 ) ;
#146 = PERSON_AND_ORGANIZATION ( #52, #230 ) ;
#147 = PERSON_AND_ORGANIZATION ( #52, #230 ) ;
#148 = DATE_AND_TIME ( #127, #56 ) ;
#149 = VERTEX_POINT ( 'NONE', #175 ) ;
#150 = ORIENTED_EDGE ( 'NONE', *, *, #73, .F. ) ;
#151 = ORIENTED_EDGE ( 'NONE', *, *, #47, .T. ) ;
#152 = AXIS2_PLACEMENT_3D ( 'NONE', #232, #159, #209 ) ;
#153 = DIRECTION ( 'NONE',  ( 0.000000000000000000, 0.000000000000000000, 1.000000000000000000 ) ) ;
#154 = CC_DESIGN_PERSON_AND_ORGANIZATION_ASSIGNMENT ( #37, #217, ( #212 ) ) ;
#155 = CALENDAR_DATE ( 2023, 13, 2 ) ;
#156 = CYLINDRICAL_SURFACE ( 'NONE', #96, 2.100000000000000089 ) ;
#157 = PLANE ( 'NONE',  #250 ) ;
#158 = FACE_OUTER_BOUND ( 'NONE', #6, .T. ) ;
#159 = DIRECTION ( 'NONE',  ( 0.000000000000000000, 0.000000000000000000, 1.000000000000000000 ) ) ;
#160 = DIRECTION ( 'NONE',  ( 0.000000000000000000, 0.000000000000000000, 1.000000000000000000 ) ) ;
#161 =( LENGTH_UNIT ( ) NAMED_UNIT ( * ) SI_UNIT ( .MILLI., .METRE. ) );
#162 = EDGE_CURVE ( 'NONE', #244, #227, #19, .T. ) ;
#163 = LOCAL_TIME ( 17, 34, 7.000000000000000000, #199 ) ;
#164 = CC_DESIGN_DATE_AND_TIME_ASSIGNMENT ( #240, #186, ( #167 ) ) ;
#165 = COORDINATED_UNIVERSAL_TIME_OFFSET ( 1, 0, .AHEAD. ) ;
#166 = AXIS2_PLACEMENT_3D ( 'NONE', #91, #72, #92 ) ;
#167 = SECURITY_CLASSIFICATION ( '', '', #84 ) ;
#168 = ORIENTED_EDGE ( 'NONE', *, *, #47, .F. ) ;
#169 = PERSON_AND_ORGANIZATION ( #52, #230 ) ;
#170 = EDGE_LOOP ( 'NONE', ( #104, #29, #189, #5 ) ) ;
#171 = AXIS2_PLACEMENT_3D ( 'NONE', #251, #71, #252 ) ;
#172 = VERTEX_POINT ( 'NONE', #74 ) ;
#173 = DIRECTION ( 'NONE',  ( -0.000000000000000000, -0.000000000000000000, -1.000000000000000000 ) ) ;
#174 = VECTOR ( 'NONE', #173, 1000.000000000000000 ) ;
#175 = CARTESIAN_POINT ( 'NONE',  ( 4.000000000000000000, 4.898587196589412829E-16, 0.000000000000000000 ) ) ;
#176 = DIRECTION ( 'NONE',  ( -0.000000000000000000, -0.000000000000000000, -1.000000000000000000 ) ) ;
#177 = CARTESIAN_POINT ( 'NONE',  ( 0.000000000000000000, 0.000000000000000000, 0.000000000000000000 ) ) ;
#178 = EDGE_CURVE ( 'NONE', #204, #172, #50, .T. ) ;
#179 = CARTESIAN_POINT ( 'NONE',  ( 0.000000000000000000, 0.000000000000000000, 0.000000000000000000 ) ) ;
#180 = DIRECTION ( 'NONE',  ( 0.000000000000000000, 0.000000000000000000, 1.000000000000000000 ) ) ;
#181 = CARTESIAN_POINT ( 'NONE',  ( -4.000000000000000000, 0.000000000000000000, 4.000000000000000000 ) ) ;
#182 = CARTESIAN_POINT ( 'NONE',  ( 4.000000000000000000, 4.898587196589412829E-16, 4.000000000000000000 ) ) ;
#183 = APPROVAL_ROLE ( '' ) ;
#184 = AXIS2_PLACEMENT_3D ( 'NONE', #76, #3, #97 ) ;
#185 = PRODUCT_DEFINITION_FORMATION_WITH_SPECIFIED_SOURCE ( 'LIBOVOLNÝ', '', #212, .NOT_KNOWN. ) ;
#186 = DATE_TIME_ROLE ( 'classification_date' ) ;
#187 = ORIENTED_EDGE ( 'NONE', *, *, #39, .F. ) ;
#188 = DIRECTION ( 'NONE',  ( 1.000000000000000000, 0.000000000000000000, 0.000000000000000000 ) ) ;
#189 = ORIENTED_EDGE ( 'NONE', *, *, #218, .T. ) ;
#190 = DIRECTION ( 'NONE',  ( 0.000000000000000000, 0.000000000000000000, 1.000000000000000000 ) ) ;
#191 = CARTESIAN_POINT ( 'NONE',  ( 0.000000000000000000, 0.000000000000000000, 315.0000000000000000 ) ) ;
#192 = CIRCLE ( 'NONE', #225, 4.000000000000000000 ) ;
#193 = DIRECTION ( 'NONE',  ( 0.000000000000000000, 0.000000000000000000, 1.000000000000000000 ) ) ;
#194 = LINE ( 'NONE', #213, #216 ) ;
#195 = DIRECTION ( 'NONE',  ( 1.000000000000000000, 0.000000000000000000, -0.000000000000000000 ) ) ;
#196 = CIRCLE ( 'NONE', #79, 4.000000000000000000 ) ;
#197 = AXIS2_PLACEMENT_3D ( 'NONE', #179, #180, #1 ) ;
#198 = CALENDAR_DATE ( 2023, 13, 2 ) ;
#199 = COORDINATED_UNIVERSAL_TIME_OFFSET ( 1, 0, .AHEAD. ) ;
#200 =( NAMED_UNIT ( * ) SI_UNIT ( $, .STERADIAN. ) SOLID_ANGLE_UNIT ( ) );
#201 = COORDINATED_UNIVERSAL_TIME_OFFSET ( 1, 0, .AHEAD. ) ;
#202 = AXIS2_PLACEMENT_3D ( 'NONE', #51, #35, #134 ) ;
#203 = ORIENTED_EDGE ( 'NONE', *, *, #162, .T. ) ;
#204 = VERTEX_POINT ( 'NONE', #233 ) ;
#205 = VERTEX_POINT ( 'NONE', #55 ) ;
#206 = CYLINDRICAL_SURFACE ( 'NONE', #31, 2.100000000000000089 ) ;
#207 = CARTESIAN_POINT ( 'NONE',  ( 0.000000000000000000, 0.000000000000000000, 315.0000000000000000 ) ) ;
#208 = PRODUCT_DEFINITION_SHAPE ( 'NONE', 'NONE',  #57 ) ;
#209 = DIRECTION ( 'NONE',  ( 1.000000000000000000, 0.000000000000000000, 0.000000000000000000 ) ) ;
#210 = EDGE_CURVE ( 'NONE', #105, #149, #196, .T. ) ;
#211 = AXIS2_PLACEMENT_3D ( 'NONE', #177, #160, #20 ) ;
#212 = PRODUCT ( '29ed', '29ed', '', ( #215 ) ) ;
#213 = CARTESIAN_POINT ( 'NONE',  ( -2.100000000000000089, 0.000000000000000000, 315.0000000000000000 ) ) ;
#214 = PLANE ( 'NONE',  #143 ) ;
#215 = MECHANICAL_CONTEXT ( 'NONE', #124, 'mechanical' ) ;
#216 = VECTOR ( 'NONE', #176, 1000.000000000000000 ) ;
#217 = PERSON_AND_ORGANIZATION_ROLE ( 'design_owner' ) ;
#218 = EDGE_CURVE ( 'NONE', #149, #105, #117, .T. ) ;
#219 = CALENDAR_DATE ( 2023, 13, 2 ) ;
#220 = CC_DESIGN_PERSON_AND_ORGANIZATION_ASSIGNMENT ( #22, #119, ( #57 ) ) ;
#221 = CLOSED_SHELL ( 'NONE', ( #109, #247, #103, #78, #137, #16, #82 ) ) ;
#222 = VERTEX_POINT ( 'NONE', #238 ) ;
#223 = ORIENTED_EDGE ( 'NONE', *, *, #93, .F. ) ;
#224 = FACE_OUTER_BOUND ( 'NONE', #7, .T. ) ;
#225 = AXIS2_PLACEMENT_3D ( 'NONE', #125, #153, #188 ) ;
#226 = CC_DESIGN_APPROVAL ( #8, ( #57 ) ) ;
#227 = VERTEX_POINT ( 'NONE', #182 ) ;
#228 = CC_DESIGN_DATE_AND_TIME_ASSIGNMENT ( #17, #99, ( #57 ) ) ;
#229 = CARTESIAN_POINT ( 'NONE',  ( 0.000000000000000000, 0.000000000000000000, 4.000000000000000000 ) ) ;
#230 = ORGANIZATION ( 'NEURÈENÝ', 'NEURÈENÝ', '' ) ;
#231 = FACE_OUTER_BOUND ( 'NONE', #42, .T. ) ;
#232 = CARTESIAN_POINT ( 'NONE',  ( 0.000000000000000000, 0.000000000000000000, 315.0000000000000000 ) ) ;
#233 = CARTESIAN_POINT ( 'NONE',  ( 2.100000000000000089, 2.571758278209441957E-16, 315.0000000000000000 ) ) ;
#234 = UNCERTAINTY_MEASURE_WITH_UNIT (LENGTH_MEASURE( 1.000000000000000082E-05 ), #161, 'distance_accuracy_value', 'NONE');
#235 = PRODUCT_RELATED_PRODUCT_CATEGORY ( 'detail', '', ( #212 ) ) ;
#236 = AXIS2_PLACEMENT_3D ( 'NONE', #34, #190, #248 ) ;
#237 = DIRECTION ( 'NONE',  ( -0.000000000000000000, -0.000000000000000000, -1.000000000000000000 ) ) ;
#238 = CARTESIAN_POINT ( 'NONE',  ( 2.100000000000000089, 2.571758278209441957E-16, 4.000000000000000000 ) ) ;
#239 = APPROVAL_ROLE ( '' ) ;
#240 = DATE_AND_TIME ( #155, #245 ) ;
#241 = CIRCLE ( 'NONE', #113, 2.100000000000000089 ) ;
#242 = LOCAL_TIME ( 17, 34, 7.000000000000000000, #201 ) ;
#243 = PERSON_AND_ORGANIZATION ( #52, #230 ) ;
#244 = VERTEX_POINT ( 'NONE', #181 ) ;
#245 = LOCAL_TIME ( 17, 34, 7.000000000000000000, #45 ) ;
#246 = DIRECTION ( 'NONE',  ( 1.000000000000000000, 0.000000000000000000, 0.000000000000000000 ) ) ;
#247 = ADVANCED_FACE ( 'NONE', ( #100 ), #77, .T. ) ;
#248 = DIRECTION ( 'NONE',  ( 1.000000000000000000, 0.000000000000000000, 0.000000000000000000 ) ) ;
#249 = CARTESIAN_POINT ( 'NONE',  ( 4.000000000000000000, 4.898587196589412829E-16, 4.000000000000000000 ) ) ;
#250 = AXIS2_PLACEMENT_3D ( 'NONE', #229, #140, #195 ) ;
#251 = CARTESIAN_POINT ( 'NONE',  ( 0.000000000000000000, 0.000000000000000000, 4.000000000000000000 ) ) ;
#252 = DIRECTION ( 'NONE',  ( 1.000000000000000000, 0.000000000000000000, 0.000000000000000000 ) ) ;
#253 = APPROVAL ( #40, 'NEURÈENÝ' ) ;
#254 = CARTESIAN_POINT ( 'NONE',  ( -4.000000000000000000, 0.000000000000000000, 4.000000000000000000 ) ) ;
#255 = DATE_AND_TIME ( #116, #242 ) ;
ENDSEC;
END-ISO-10303-21;
