ISO-10303-21;
HEADER;
FILE_DESCRIPTION (( 'STEP AP203' ),
    '1' );
FILE_NAME ('5cb6.STEP',
    '2023-02-13T15:46:17',
    ( '' ),
    ( '' ),
    'SwSTEP 2.0',
    'SolidWorks 2019',
    '' );
FILE_SCHEMA (( 'CONFIG_CONTROL_DESIGN' ));
ENDSEC;

DATA;
#1 = DATE_AND_TIME ( #170, #138 ) ;
#2 = FACE_BOUND ( 'NONE', #245, .T. ) ;
#3 = VERTEX_POINT ( 'NONE', #46 ) ;
#4 = CIRCLE ( 'NONE', #48, 5.000000000000000000 ) ;
#5 = ORIENTED_EDGE ( 'NONE', *, *, #140, .T. ) ;
#6 = AXIS2_PLACEMENT_3D ( 'NONE', #79, #135, #205 ) ;
#7 = AXIS2_PLACEMENT_3D ( 'NONE', #93, #165, #52 ) ;
#8 = VERTEX_POINT ( 'NONE', #242 ) ;
#9 = DIRECTION ( 'NONE',  ( -0.000000000000000000, -0.000000000000000000, -1.000000000000000000 ) ) ;
#10 = LINE ( 'NONE', #211, #161 ) ;
#11 = DIRECTION ( 'NONE',  ( 0.000000000000000000, 0.000000000000000000, 1.000000000000000000 ) ) ;
#12 = AXIS2_PLACEMENT_3D ( 'NONE', #35, #111, #36 ) ;
#13 = COORDINATED_UNIVERSAL_TIME_OFFSET ( 1, 0, .AHEAD. ) ;
#14 = AXIS2_PLACEMENT_3D ( 'NONE', #153, #9, #253 ) ;
#15 = ADVANCED_FACE ( 'NONE', ( #49 ), #65, .F. ) ;
#16 = ORIENTED_EDGE ( 'NONE', *, *, #97, .T. ) ;
#17 = APPROVAL_DATE_TIME ( #1, #149 ) ;
#18 = ORIENTED_EDGE ( 'NONE', *, *, #143, .F. ) ;
#19 = CALENDAR_DATE ( 2023, 13, 2 ) ;
#20 = CARTESIAN_POINT ( 'NONE',  ( -5.000000000000000000, 0.000000000000000000, 5.000000000000000000 ) ) ;
#21 = EDGE_CURVE ( 'NONE', #98, #8, #72, .T. ) ;
#22 =( NAMED_UNIT ( * ) PLANE_ANGLE_UNIT ( ) SI_UNIT ( $, .RADIAN. ) );
#23 = ORIENTED_EDGE ( 'NONE', *, *, #121, .T. ) ;
#24 = ORIENTED_EDGE ( 'NONE', *, *, #87, .F. ) ;
#25 = COORDINATED_UNIVERSAL_TIME_OFFSET ( 1, 0, .AHEAD. ) ;
#26 = ORIENTED_EDGE ( 'NONE', *, *, #31, .F. ) ;
#27 = PERSON_AND_ORGANIZATION ( #214, #132 ) ;
#28 = AXIS2_PLACEMENT_3D ( 'NONE', #203, #124, #29 ) ;
#29 = DIRECTION ( 'NONE',  ( 1.000000000000000000, 0.000000000000000000, 0.000000000000000000 ) ) ;
#30 = CARTESIAN_POINT ( 'NONE',  ( 0.000000000000000000, 0.000000000000000000, 800.0000000000000000 ) ) ;
#31 = EDGE_CURVE ( 'NONE', #175, #200, #75, .T. ) ;
#32 = SECURITY_CLASSIFICATION ( '', '', #120 ) ;
#33 = CARTESIAN_POINT ( 'NONE',  ( 0.000000000000000000, 0.000000000000000000, 0.000000000000000000 ) ) ;
#34 = CARTESIAN_POINT ( 'NONE',  ( 0.000000000000000000, 0.000000000000000000, 0.000000000000000000 ) ) ;
#35 = CARTESIAN_POINT ( 'NONE',  ( 0.000000000000000000, 0.000000000000000000, 5.000000000000000000 ) ) ;
#36 = DIRECTION ( 'NONE',  ( 1.000000000000000000, 0.000000000000000000, 0.000000000000000000 ) ) ;
#37 = CC_DESIGN_PERSON_AND_ORGANIZATION_ASSIGNMENT ( #174, #201, ( #32 ) ) ;
#38 = LOCAL_TIME ( 16, 46, 17.00000000000000000, #180 ) ;
#39 = ORIENTED_EDGE ( 'NONE', *, *, #121, .F. ) ;
#40 = ADVANCED_BREP_SHAPE_REPRESENTATION ( '5cb6', ( #237, #241 ), #44 ) ;
#41 = COORDINATED_UNIVERSAL_TIME_OFFSET ( 1, 0, .AHEAD. ) ;
#42 = FACE_OUTER_BOUND ( 'NONE', #83, .T. ) ;
#43 = PERSON_AND_ORGANIZATION ( #214, #132 ) ;
#44 =( GEOMETRIC_REPRESENTATION_CONTEXT ( 3 ) GLOBAL_UNCERTAINTY_ASSIGNED_CONTEXT ( ( #45 ) ) GLOBAL_UNIT_ASSIGNED_CONTEXT ( ( #217, #22, #67 ) ) REPRESENTATION_CONTEXT ( 'NONE', 'WORKASPACE' ) );
#45 = UNCERTAINTY_MEASURE_WITH_UNIT (LENGTH_MEASURE( 1.000000000000000082E-05 ), #217, 'distance_accuracy_value', 'NONE');
#46 = CARTESIAN_POINT ( 'NONE',  ( -5.000000000000000000, 0.000000000000000000, 0.000000000000000000 ) ) ;
#47 = DIRECTION ( 'NONE',  ( 1.000000000000000000, 0.000000000000000000, 0.000000000000000000 ) ) ;
#48 = AXIS2_PLACEMENT_3D ( 'NONE', #190, #166, #71 ) ;
#49 = FACE_OUTER_BOUND ( 'NONE', #126, .T. ) ;
#50 = ORIENTED_EDGE ( 'NONE', *, *, #21, .F. ) ;
#51 = DIRECTION ( 'NONE',  ( -0.000000000000000000, -0.000000000000000000, -1.000000000000000000 ) ) ;
#52 = DIRECTION ( 'NONE',  ( -1.000000000000000000, 0.000000000000000000, 0.000000000000000000 ) ) ;
#53 = FACE_OUTER_BOUND ( 'NONE', #197, .T. ) ;
#54 = AXIS2_PLACEMENT_3D ( 'NONE', #30, #225, #182 ) ;
#55 = LINE ( 'NONE', #233, #109 ) ;
#56 = PRODUCT_DEFINITION ( 'NEZNÁMÝ', '', #198, #226 ) ;
#57 = EDGE_CURVE ( 'NONE', #157, #195, #249, .T. ) ;
#58 = APPROVAL_ROLE ( '' ) ;
#59 = DIRECTION ( 'NONE',  ( 0.000000000000000000, 0.000000000000000000, 1.000000000000000000 ) ) ;
#60 = CARTESIAN_POINT ( 'NONE',  ( 5.000000000000000000, 6.123233995736766282E-16, 5.000000000000000000 ) ) ;
#61 = APPROVAL_ROLE ( '' ) ;
#62 = APPROVAL ( #108, 'NEURÈENÝ' ) ;
#63 = ADVANCED_FACE ( 'NONE', ( #181 ), #139, .T. ) ;
#64 = APPROVAL_STATUS ( 'not_yet_approved' ) ;
#65 = PLANE ( 'NONE',  #94 ) ;
#66 = EDGE_LOOP ( 'NONE', ( #78, #227, #69, #171 ) ) ;
#67 =( NAMED_UNIT ( * ) SI_UNIT ( $, .STERADIAN. ) SOLID_ANGLE_UNIT ( ) );
#68 = ADVANCED_FACE ( 'NONE', ( #85 ), #250, .T. ) ;
#69 = ORIENTED_EDGE ( 'NONE', *, *, #143, .T. ) ;
#70 = CARTESIAN_POINT ( 'NONE',  ( 0.000000000000000000, 0.000000000000000000, 5.000000000000000000 ) ) ;
#71 = DIRECTION ( 'NONE',  ( 1.000000000000000000, 0.000000000000000000, 0.000000000000000000 ) ) ;
#72 = CIRCLE ( 'NONE', #122, 2.750000000000000000 ) ;
#73 = DIRECTION ( 'NONE',  ( 0.000000000000000000, 0.000000000000000000, 1.000000000000000000 ) ) ;
#74 = CARTESIAN_POINT ( 'NONE',  ( 5.000000000000000000, 6.123233995736766282E-16, 0.000000000000000000 ) ) ;
#75 = CIRCLE ( 'NONE', #28, 5.000000000000000000 ) ;
#76 = PRODUCT ( '5cb6', '5cb6', '', ( #142 ) ) ;
#77 = CARTESIAN_POINT ( 'NONE',  ( 2.750000000000000000, 3.367778697655221012E-16, 800.0000000000000000 ) ) ;
#78 = ORIENTED_EDGE ( 'NONE', *, *, #239, .F. ) ;
#79 = CARTESIAN_POINT ( 'NONE',  ( 0.000000000000000000, 0.000000000000000000, 5.000000000000000000 ) ) ;
#80 = AXIS2_PLACEMENT_3D ( 'NONE', #230, #51, #150 ) ;
#81 = SHAPE_DEFINITION_REPRESENTATION ( #202, #40 ) ;
#82 = CC_DESIGN_PERSON_AND_ORGANIZATION_ASSIGNMENT ( #240, #196, ( #198 ) ) ;
#83 = EDGE_LOOP ( 'NONE', ( #16, #177 ) ) ;
#84 = CALENDAR_DATE ( 2023, 13, 2 ) ;
#85 = FACE_OUTER_BOUND ( 'NONE', #186, .T. ) ;
#86 = CC_DESIGN_DATE_AND_TIME_ASSIGNMENT ( #219, #159, ( #56 ) ) ;
#87 = EDGE_CURVE ( 'NONE', #3, #162, #244, .T. ) ;
#88 = ORIENTED_EDGE ( 'NONE', *, *, #57, .T. ) ;
#89 = DIRECTION ( 'NONE',  ( -1.000000000000000000, 0.000000000000000000, 0.000000000000000000 ) ) ;
#90 = CLOSED_SHELL ( 'NONE', ( #68, #146, #131, #185, #15, #107, #63 ) ) ;
#91 = DIRECTION ( 'NONE',  ( 1.000000000000000000, 0.000000000000000000, 0.000000000000000000 ) ) ;
#92 = DIRECTION ( 'NONE',  ( 0.000000000000000000, 0.000000000000000000, 1.000000000000000000 ) ) ;
#93 = CARTESIAN_POINT ( 'NONE',  ( 0.000000000000000000, 0.000000000000000000, 5.000000000000000000 ) ) ;
#94 = AXIS2_PLACEMENT_3D ( 'NONE', #125, #207, #208 ) ;
#95 = CYLINDRICAL_SURFACE ( 'NONE', #80, 2.750000000000000000 ) ;
#96 = EDGE_CURVE ( 'NONE', #8, #98, #156, .T. ) ;
#97 = EDGE_CURVE ( 'NONE', #200, #175, #4, .T. ) ;
#98 = VERTEX_POINT ( 'NONE', #215 ) ;
#99 = CALENDAR_DATE ( 2023, 13, 2 ) ;
#100 = EDGE_LOOP ( 'NONE', ( #88, #144 ) ) ;
#101 = ORIENTED_EDGE ( 'NONE', *, *, #96, .T. ) ;
#102 = APPLICATION_CONTEXT ( 'configuration controlled 3d designs of mechanical parts and assemblies' ) ;
#103 = APPROVAL_PERSON_ORGANIZATION ( #43, #62, #199 ) ;
#104 = PLANE ( 'NONE',  #6 ) ;
#105 = EDGE_LOOP ( 'NONE', ( #26, #155, #23, #18 ) ) ;
#106 = CALENDAR_DATE ( 2023, 13, 2 ) ;
#107 = ADVANCED_FACE ( 'NONE', ( #53 ), #95, .T. ) ;
#108 = APPROVAL_STATUS ( 'not_yet_approved' ) ;
#109 = VECTOR ( 'NONE', #254, 1000.000000000000000 ) ;
#110 = ORIENTED_EDGE ( 'NONE', *, *, #96, .F. ) ;
#111 = DIRECTION ( 'NONE',  ( 0.000000000000000000, 0.000000000000000000, 1.000000000000000000 ) ) ;
#112 = CIRCLE ( 'NONE', #160, 5.000000000000000000 ) ;
#113 = DIRECTION ( 'NONE',  ( -0.000000000000000000, -0.000000000000000000, -1.000000000000000000 ) ) ;
#114 = CARTESIAN_POINT ( 'NONE',  ( -2.750000000000000000, 0.000000000000000000, 800.0000000000000000 ) ) ;
#115 = ORIENTED_EDGE ( 'NONE', *, *, #57, .F. ) ;
#116 = DIRECTION ( 'NONE',  ( -0.000000000000000000, -0.000000000000000000, -1.000000000000000000 ) ) ;
#117 = DATE_AND_TIME ( #19, #223 ) ;
#118 = PERSON_AND_ORGANIZATION_ROLE ( 'creator' ) ;
#119 = CC_DESIGN_APPROVAL ( #149, ( #56 ) ) ;
#120 = SECURITY_CLASSIFICATION_LEVEL ( 'unclassified' ) ;
#121 = EDGE_CURVE ( 'NONE', #162, #3, #112, .T. ) ;
#122 = AXIS2_PLACEMENT_3D ( 'NONE', #70, #141, #47 ) ;
#123 = ORIENTED_EDGE ( 'NONE', *, *, #140, .F. ) ;
#124 = DIRECTION ( 'NONE',  ( 0.000000000000000000, 0.000000000000000000, 1.000000000000000000 ) ) ;
#125 = CARTESIAN_POINT ( 'NONE',  ( 0.000000000000000000, 0.000000000000000000, 0.000000000000000000 ) ) ;
#126 = EDGE_LOOP ( 'NONE', ( #24, #39 ) ) ;
#127 = VECTOR ( 'NONE', #191, 1000.000000000000000 ) ;
#128 = FACE_OUTER_BOUND ( 'NONE', #66, .T. ) ;
#129 = PERSON_AND_ORGANIZATION_ROLE ( 'design_owner' ) ;
#130 = CC_DESIGN_PERSON_AND_ORGANIZATION_ASSIGNMENT ( #234, #133, ( #56 ) ) ;
#131 = ADVANCED_FACE ( 'NONE', ( #128 ), #188, .T. ) ;
#132 = ORGANIZATION ( 'NEURÈENÝ', 'NEURÈENÝ', '' ) ;
#133 = PERSON_AND_ORGANIZATION_ROLE ( 'creator' ) ;
#134 = PERSON_AND_ORGANIZATION ( #214, #132 ) ;
#135 = DIRECTION ( 'NONE',  ( 0.000000000000000000, 0.000000000000000000, 1.000000000000000000 ) ) ;
#136 = APPROVAL_DATE_TIME ( #243, #224 ) ;
#137 = ORIENTED_EDGE ( 'NONE', *, *, #21, .T. ) ;
#138 = LOCAL_TIME ( 16, 46, 17.00000000000000000, #13 ) ;
#139 = PLANE ( 'NONE',  #54 ) ;
#140 = EDGE_CURVE ( 'NONE', #157, #98, #212, .T. ) ;
#141 = DIRECTION ( 'NONE',  ( 0.000000000000000000, 0.000000000000000000, 1.000000000000000000 ) ) ;
#142 = MECHANICAL_CONTEXT ( 'NONE', #102, 'mechanical' ) ;
#143 = EDGE_CURVE ( 'NONE', #200, #3, #10, .T. ) ;
#144 = ORIENTED_EDGE ( 'NONE', *, *, #221, .T. ) ;
#145 = CARTESIAN_POINT ( 'NONE',  ( 0.000000000000000000, 0.000000000000000000, 800.0000000000000000 ) ) ;
#146 = ADVANCED_FACE ( 'NONE', ( #255 ), #192, .T. ) ;
#147 = APPROVAL_PERSON_ORGANIZATION ( #148, #149, #58 ) ;
#148 = PERSON_AND_ORGANIZATION ( #214, #132 ) ;
#149 = APPROVAL ( #232, 'NEURÈENÝ' ) ;
#150 = DIRECTION ( 'NONE',  ( -1.000000000000000000, 0.000000000000000000, 0.000000000000000000 ) ) ;
#151 = CARTESIAN_POINT ( 'NONE',  ( 0.000000000000000000, 0.000000000000000000, 800.0000000000000000 ) ) ;
#152 = AXIS2_PLACEMENT_3D ( 'NONE', #220, #59, #154 ) ;
#153 = CARTESIAN_POINT ( 'NONE',  ( 0.000000000000000000, 0.000000000000000000, 5.000000000000000000 ) ) ;
#154 = DIRECTION ( 'NONE',  ( 1.000000000000000000, 0.000000000000000000, 0.000000000000000000 ) ) ;
#155 = ORIENTED_EDGE ( 'NONE', *, *, #239, .T. ) ;
#156 = CIRCLE ( 'NONE', #12, 2.750000000000000000 ) ;
#157 = VERTEX_POINT ( 'NONE', #114 ) ;
#158 = LOCAL_TIME ( 16, 46, 17.00000000000000000, #218 ) ;
#159 = DATE_TIME_ROLE ( 'creation_date' ) ;
#160 = AXIS2_PLACEMENT_3D ( 'NONE', #246, #92, #187 ) ;
#161 = VECTOR ( 'NONE', #167, 1000.000000000000000 ) ;
#162 = VERTEX_POINT ( 'NONE', #74 ) ;
#163 = CARTESIAN_POINT ( 'NONE',  ( -2.750000000000000000, 0.000000000000000000, 800.0000000000000000 ) ) ;
#164 = APPLICATION_PROTOCOL_DEFINITION ( 'international standard', 'config_control_design', 1994, #102 ) ;
#165 = DIRECTION ( 'NONE',  ( -0.000000000000000000, -0.000000000000000000, -1.000000000000000000 ) ) ;
#166 = DIRECTION ( 'NONE',  ( 0.000000000000000000, 0.000000000000000000, 1.000000000000000000 ) ) ;
#167 = DIRECTION ( 'NONE',  ( -0.000000000000000000, -0.000000000000000000, -1.000000000000000000 ) ) ;
#168 = CC_DESIGN_APPROVAL ( #62, ( #32 ) ) ;
#169 = CC_DESIGN_PERSON_AND_ORGANIZATION_ASSIGNMENT ( #134, #118, ( #198 ) ) ;
#170 = CALENDAR_DATE ( 2023, 13, 2 ) ;
#171 = ORIENTED_EDGE ( 'NONE', *, *, #87, .T. ) ;
#172 = AXIS2_PLACEMENT_3D ( 'NONE', #151, #113, #89 ) ;
#173 = ORIENTED_EDGE ( 'NONE', *, *, #183, .T. ) ;
#174 = PERSON_AND_ORGANIZATION ( #214, #132 ) ;
#175 = VERTEX_POINT ( 'NONE', #235 ) ;
#176 = DATE_AND_TIME ( #106, #179 ) ;
#177 = ORIENTED_EDGE ( 'NONE', *, *, #31, .T. ) ;
#178 = APPROVAL_DATE_TIME ( #176, #62 ) ;
#179 = LOCAL_TIME ( 16, 46, 17.00000000000000000, #25 ) ;
#180 = COORDINATED_UNIVERSAL_TIME_OFFSET ( 1, 0, .AHEAD. ) ;
#181 = FACE_OUTER_BOUND ( 'NONE', #100, .T. ) ;
#182 = DIRECTION ( 'NONE',  ( 1.000000000000000000, 0.000000000000000000, -0.000000000000000000 ) ) ;
#183 = EDGE_CURVE ( 'NONE', #195, #8, #55, .T. ) ;
#184 = CC_DESIGN_APPROVAL ( #224, ( #198 ) ) ;
#185 = ADVANCED_FACE ( 'NONE', ( #2, #42 ), #104, .T. ) ;
#186 = EDGE_LOOP ( 'NONE', ( #193, #173, #101, #123 ) ) ;
#187 = DIRECTION ( 'NONE',  ( 1.000000000000000000, 0.000000000000000000, 0.000000000000000000 ) ) ;
#188 = CYLINDRICAL_SURFACE ( 'NONE', #7, 5.000000000000000000 ) ;
#189 = CC_DESIGN_SECURITY_CLASSIFICATION ( #32, ( #198 ) ) ;
#190 = CARTESIAN_POINT ( 'NONE',  ( 0.000000000000000000, 0.000000000000000000, 5.000000000000000000 ) ) ;
#191 = DIRECTION ( 'NONE',  ( -0.000000000000000000, -0.000000000000000000, -1.000000000000000000 ) ) ;
#192 = CYLINDRICAL_SURFACE ( 'NONE', #14, 5.000000000000000000 ) ;
#193 = ORIENTED_EDGE ( 'NONE', *, *, #221, .F. ) ;
#194 = CC_DESIGN_PERSON_AND_ORGANIZATION_ASSIGNMENT ( #248, #129, ( #76 ) ) ;
#195 = VERTEX_POINT ( 'NONE', #77 ) ;
#196 = PERSON_AND_ORGANIZATION_ROLE ( 'design_supplier' ) ;
#197 = EDGE_LOOP ( 'NONE', ( #236, #115, #5, #137 ) ) ;
#198 = PRODUCT_DEFINITION_FORMATION_WITH_SPECIFIED_SOURCE ( 'LIBOVOLNÝ', '', #76, .NOT_KNOWN. ) ;
#199 = APPROVAL_ROLE ( '' ) ;
#200 = VERTEX_POINT ( 'NONE', #20 ) ;
#201 = PERSON_AND_ORGANIZATION_ROLE ( 'classification_officer' ) ;
#202 = PRODUCT_DEFINITION_SHAPE ( 'NONE', 'NONE',  #56 ) ;
#203 = CARTESIAN_POINT ( 'NONE',  ( 0.000000000000000000, 0.000000000000000000, 5.000000000000000000 ) ) ;
#204 = CIRCLE ( 'NONE', #152, 2.750000000000000000 ) ;
#205 = DIRECTION ( 'NONE',  ( 1.000000000000000000, 0.000000000000000000, -0.000000000000000000 ) ) ;
#206 = DIRECTION ( 'NONE',  ( 1.000000000000000000, 0.000000000000000000, 0.000000000000000000 ) ) ;
#207 = DIRECTION ( 'NONE',  ( 0.000000000000000000, 0.000000000000000000, 1.000000000000000000 ) ) ;
#208 = DIRECTION ( 'NONE',  ( 1.000000000000000000, 0.000000000000000000, -0.000000000000000000 ) ) ;
#209 = PRODUCT_RELATED_PRODUCT_CATEGORY ( 'detail', '', ( #76 ) ) ;
#210 = APPROVAL_PERSON_ORGANIZATION ( #27, #224, #61 ) ;
#211 = CARTESIAN_POINT ( 'NONE',  ( -5.000000000000000000, 0.000000000000000000, 5.000000000000000000 ) ) ;
#212 = LINE ( 'NONE', #163, #127 ) ;
#213 = AXIS2_PLACEMENT_3D ( 'NONE', #33, #11, #231 ) ;
#214 = PERSON ( 'NEURÈENÝ', 'NEURÈENÝ', 'NEURÈENÝ', ('NEURÈENÝ'), ('NEURÈENÝ'), ('NEURÈENÝ') ) ;
#215 = CARTESIAN_POINT ( 'NONE',  ( -2.750000000000000000, 0.000000000000000000, 5.000000000000000000 ) ) ;
#216 = APPLICATION_CONTEXT ( 'configuration controlled 3d designs of mechanical parts and assemblies' ) ;
#217 =( LENGTH_UNIT ( ) NAMED_UNIT ( * ) SI_UNIT ( .MILLI., .METRE. ) );
#218 = COORDINATED_UNIVERSAL_TIME_OFFSET ( 1, 0, .AHEAD. ) ;
#219 = DATE_AND_TIME ( #99, #158 ) ;
#220 = CARTESIAN_POINT ( 'NONE',  ( 0.000000000000000000, 0.000000000000000000, 800.0000000000000000 ) ) ;
#221 = EDGE_CURVE ( 'NONE', #195, #157, #204, .T. ) ;
#222 = DATE_TIME_ROLE ( 'classification_date' ) ;
#223 = LOCAL_TIME ( 16, 46, 17.00000000000000000, #41 ) ;
#224 = APPROVAL ( #64, 'NEURÈENÝ' ) ;
#225 = DIRECTION ( 'NONE',  ( 0.000000000000000000, 0.000000000000000000, 1.000000000000000000 ) ) ;
#226 = DESIGN_CONTEXT ( 'detailed design', #216, 'design' ) ;
#227 = ORIENTED_EDGE ( 'NONE', *, *, #97, .F. ) ;
#228 = DIRECTION ( 'NONE',  ( 0.000000000000000000, 0.000000000000000000, 1.000000000000000000 ) ) ;
#229 = AXIS2_PLACEMENT_3D ( 'NONE', #145, #228, #206 ) ;
#230 = CARTESIAN_POINT ( 'NONE',  ( 0.000000000000000000, 0.000000000000000000, 800.0000000000000000 ) ) ;
#231 = DIRECTION ( 'NONE',  ( 1.000000000000000000, 0.000000000000000000, 0.000000000000000000 ) ) ;
#232 = APPROVAL_STATUS ( 'not_yet_approved' ) ;
#233 = CARTESIAN_POINT ( 'NONE',  ( 2.750000000000000000, 3.367778697655221012E-16, 800.0000000000000000 ) ) ;
#234 = PERSON_AND_ORGANIZATION ( #214, #132 ) ;
#235 = CARTESIAN_POINT ( 'NONE',  ( 5.000000000000000000, 6.123233995736766282E-16, 5.000000000000000000 ) ) ;
#236 = ORIENTED_EDGE ( 'NONE', *, *, #183, .F. ) ;
#237 = MANIFOLD_SOLID_BREP ( 'Pøidat vysunutím3', #90 ) ;
#238 = LINE ( 'NONE', #60, #251 ) ;
#239 = EDGE_CURVE ( 'NONE', #175, #162, #238, .T. ) ;
#240 = PERSON_AND_ORGANIZATION ( #214, #132 ) ;
#241 = AXIS2_PLACEMENT_3D ( 'NONE', #34, #73, #91 ) ;
#242 = CARTESIAN_POINT ( 'NONE',  ( 2.750000000000000000, 3.367778697655221012E-16, 5.000000000000000000 ) ) ;
#243 = DATE_AND_TIME ( #84, #38 ) ;
#244 = CIRCLE ( 'NONE', #213, 5.000000000000000000 ) ;
#245 = EDGE_LOOP ( 'NONE', ( #50, #110 ) ) ;
#246 = CARTESIAN_POINT ( 'NONE',  ( 0.000000000000000000, 0.000000000000000000, 0.000000000000000000 ) ) ;
#247 = CC_DESIGN_DATE_AND_TIME_ASSIGNMENT ( #117, #222, ( #32 ) ) ;
#248 = PERSON_AND_ORGANIZATION ( #214, #132 ) ;
#249 = CIRCLE ( 'NONE', #229, 2.750000000000000000 ) ;
#250 = CYLINDRICAL_SURFACE ( 'NONE', #172, 2.750000000000000000 ) ;
#251 = VECTOR ( 'NONE', #116, 1000.000000000000000 ) ;
#252 = APPLICATION_PROTOCOL_DEFINITION ( 'international standard', 'config_control_design', 1994, #216 ) ;
#253 = DIRECTION ( 'NONE',  ( -1.000000000000000000, 0.000000000000000000, 0.000000000000000000 ) ) ;
#254 = DIRECTION ( 'NONE',  ( -0.000000000000000000, -0.000000000000000000, -1.000000000000000000 ) ) ;
#255 = FACE_OUTER_BOUND ( 'NONE', #105, .T. ) ;
ENDSEC;
END-ISO-10303-21;
