ISO-10303-21;
HEADER;
FILE_DESCRIPTION (( 'STEP AP203' ),
    '1' );
FILE_NAME ('9067.STEP',
    '2023-02-13T08:41:47',
    ( '' ),
    ( '' ),
    'SwSTEP 2.0',
    'SolidWorks 2019',
    '' );
FILE_SCHEMA (( 'CONFIG_CONTROL_DESIGN' ));
ENDSEC;

DATA;
#1 = CARTESIAN_POINT ( 'NONE',  ( 0.000000000000000000, 0.000000000000000000, 125.0000000000000000 ) ) ;
#2 = CALENDAR_DATE ( 2023, 13, 2 ) ;
#3 = CARTESIAN_POINT ( 'NONE',  ( 14.00000000000000000, 1.714505518806294638E-15, 7.000000000000000000 ) ) ;
#4 = ADVANCED_FACE ( 'NONE', ( #223, #6 ), #51, .T. ) ;
#5 = CARTESIAN_POINT ( 'NONE',  ( 0.000000000000000000, 0.000000000000000000, 7.000000000000000000 ) ) ;
#6 = FACE_OUTER_BOUND ( 'NONE', #244, .T. ) ;
#7 = EDGE_CURVE ( 'NONE', #128, #58, #89, .T. ) ;
#8 = CARTESIAN_POINT ( 'NONE',  ( 0.000000000000000000, 0.000000000000000000, 125.0000000000000000 ) ) ;
#9 = AXIS2_PLACEMENT_3D ( 'NONE', #64, #126, #107 ) ;
#10 = PRODUCT ( '9067', '9067', '', ( #195 ) ) ;
#11 = FACE_OUTER_BOUND ( 'NONE', #218, .T. ) ;
#12 = DIRECTION ( 'NONE',  ( -0.000000000000000000, -0.000000000000000000, -1.000000000000000000 ) ) ;
#13 = LINE ( 'NONE', #148, #123 ) ;
#14 = ADVANCED_FACE ( 'NONE', ( #50 ), #88, .T. ) ;
#15 = AXIS2_PLACEMENT_3D ( 'NONE', #191, #165, #167 ) ;
#16 = DATE_AND_TIME ( #231, #155 ) ;
#17 = ORIENTED_EDGE ( 'NONE', *, *, #7, .F. ) ;
#18 = APPROVAL_ROLE ( '' ) ;
#19 = CALENDAR_DATE ( 2023, 13, 2 ) ;
#20 = EDGE_CURVE ( 'NONE', #58, #128, #233, .T. ) ;
#21 = VERTEX_POINT ( 'NONE', #85 ) ;
#22 = APPROVAL_ROLE ( '' ) ;
#23 = AXIS2_PLACEMENT_3D ( 'NONE', #5, #242, #105 ) ;
#24 = ORIENTED_EDGE ( 'NONE', *, *, #152, .F. ) ;
#25 = CARTESIAN_POINT ( 'NONE',  ( 0.000000000000000000, 0.000000000000000000, 7.000000000000000000 ) ) ;
#26 = APPROVAL ( #196, 'NEURÈENÝ' ) ;
#27 = PERSON_AND_ORGANIZATION ( #198, #183 ) ;
#28 = CARTESIAN_POINT ( 'NONE',  ( 0.000000000000000000, 0.000000000000000000, 0.000000000000000000 ) ) ;
#29 = AXIS2_PLACEMENT_3D ( 'NONE', #147, #213, #70 ) ;
#30 = ORIENTED_EDGE ( 'NONE', *, *, #59, .T. ) ;
#31 = CC_DESIGN_PERSON_AND_ORGANIZATION_ASSIGNMENT ( #215, #41, ( #219 ) ) ;
#32 = CARTESIAN_POINT ( 'NONE',  ( -10.00000000000000000, 0.000000000000000000, 125.0000000000000000 ) ) ;
#33 = DIRECTION ( 'NONE',  ( 0.000000000000000000, 0.000000000000000000, 1.000000000000000000 ) ) ;
#34 = AXIS2_PLACEMENT_3D ( 'NONE', #222, #205, #119 ) ;
#35 = PERSON_AND_ORGANIZATION ( #198, #183 ) ;
#36 = CARTESIAN_POINT ( 'NONE',  ( 0.000000000000000000, 0.000000000000000000, 0.000000000000000000 ) ) ;
#37 =( LENGTH_UNIT ( ) NAMED_UNIT ( * ) SI_UNIT ( .MILLI., .METRE. ) );
#38 = CIRCLE ( 'NONE', #127, 10.00000000000000000 ) ;
#39 = DIRECTION ( 'NONE',  ( 1.000000000000000000, 0.000000000000000000, 0.000000000000000000 ) ) ;
#40 = APPROVAL ( #109, 'NEURÈENÝ' ) ;
#41 = PERSON_AND_ORGANIZATION_ROLE ( 'creator' ) ;
#42 = PERSON_AND_ORGANIZATION ( #198, #183 ) ;
#43 = AXIS2_PLACEMENT_3D ( 'NONE', #28, #225, #144 ) ;
#44 = CC_DESIGN_PERSON_AND_ORGANIZATION_ASSIGNMENT ( #42, #159, ( #115 ) ) ;
#45 = ORIENTED_EDGE ( 'NONE', *, *, #66, .F. ) ;
#46 = AXIS2_PLACEMENT_3D ( 'NONE', #83, #61, #139 ) ;
#47 = DIRECTION ( 'NONE',  ( 0.000000000000000000, 0.000000000000000000, 1.000000000000000000 ) ) ;
#48 = COORDINATED_UNIVERSAL_TIME_OFFSET ( 1, 0, .AHEAD. ) ;
#49 = CARTESIAN_POINT ( 'NONE',  ( -14.00000000000000000, 0.000000000000000000, 7.000000000000000000 ) ) ;
#50 = FACE_OUTER_BOUND ( 'NONE', #97, .T. ) ;
#51 = PLANE ( 'NONE',  #138 ) ;
#52 = DIRECTION ( 'NONE',  ( -0.000000000000000000, -0.000000000000000000, -1.000000000000000000 ) ) ;
#53 =( NAMED_UNIT ( * ) PLANE_ANGLE_UNIT ( ) SI_UNIT ( $, .RADIAN. ) );
#54 = ORIENTED_EDGE ( 'NONE', *, *, #194, .F. ) ;
#55 = CARTESIAN_POINT ( 'NONE',  ( -10.00000000000000000, 0.000000000000000000, 125.0000000000000000 ) ) ;
#56 = ADVANCED_FACE ( 'NONE', ( #101 ), #104, .F. ) ;
#57 = DIRECTION ( 'NONE',  ( 0.000000000000000000, 0.000000000000000000, 1.000000000000000000 ) ) ;
#58 = VERTEX_POINT ( 'NONE', #49 ) ;
#59 = EDGE_CURVE ( 'NONE', #21, #185, #111, .T. ) ;
#60 = ORIENTED_EDGE ( 'NONE', *, *, #114, .T. ) ;
#61 = DIRECTION ( 'NONE',  ( 0.000000000000000000, 0.000000000000000000, 1.000000000000000000 ) ) ;
#62 = CC_DESIGN_SECURITY_CLASSIFICATION ( #254, ( #115 ) ) ;
#63 = PLANE ( 'NONE',  #34 ) ;
#64 = CARTESIAN_POINT ( 'NONE',  ( 0.000000000000000000, 0.000000000000000000, 0.000000000000000000 ) ) ;
#65 = CARTESIAN_POINT ( 'NONE',  ( 0.000000000000000000, 0.000000000000000000, 7.000000000000000000 ) ) ;
#66 = EDGE_CURVE ( 'NONE', #211, #185, #87, .T. ) ;
#67 = LOCAL_TIME ( 9, 41, 47.00000000000000000, #200 ) ;
#68 = DIRECTION ( 'NONE',  ( 1.000000000000000000, 0.000000000000000000, 0.000000000000000000 ) ) ;
#69 = CARTESIAN_POINT ( 'NONE',  ( -10.00000000000000000, 0.000000000000000000, 7.000000000000000000 ) ) ;
#70 = DIRECTION ( 'NONE',  ( -1.000000000000000000, 0.000000000000000000, 0.000000000000000000 ) ) ;
#71 =( GEOMETRIC_REPRESENTATION_CONTEXT ( 3 ) GLOBAL_UNCERTAINTY_ASSIGNED_CONTEXT ( ( #212 ) ) GLOBAL_UNIT_ASSIGNED_CONTEXT ( ( #37, #53, #249 ) ) REPRESENTATION_CONTEXT ( 'NONE', 'WORKASPACE' ) );
#72 = APPLICATION_CONTEXT ( 'configuration controlled 3d designs of mechanical parts and assemblies' ) ;
#73 = ORIENTED_EDGE ( 'NONE', *, *, #59, .F. ) ;
#74 = DIRECTION ( 'NONE',  ( 1.000000000000000000, 0.000000000000000000, 0.000000000000000000 ) ) ;
#75 = EDGE_CURVE ( 'NONE', #58, #230, #160, .T. ) ;
#76 = AXIS2_PLACEMENT_3D ( 'NONE', #96, #57, #39 ) ;
#77 = PERSON_AND_ORGANIZATION_ROLE ( 'classification_officer' ) ;
#78 = CC_DESIGN_APPROVAL ( #79, ( #254 ) ) ;
#79 = APPROVAL ( #154, 'NEURÈENÝ' ) ;
#80 = CC_DESIGN_APPROVAL ( #26, ( #219 ) ) ;
#81 = ORIENTED_EDGE ( 'NONE', *, *, #20, .F. ) ;
#82 = ORIENTED_EDGE ( 'NONE', *, *, #171, .F. ) ;
#83 = CARTESIAN_POINT ( 'NONE',  ( 0.000000000000000000, 0.000000000000000000, 125.0000000000000000 ) ) ;
#84 = AXIS2_PLACEMENT_3D ( 'NONE', #86, #47, #68 ) ;
#85 = CARTESIAN_POINT ( 'NONE',  ( 10.00000000000000000, 1.224646799147353256E-15, 7.000000000000000000 ) ) ;
#86 = CARTESIAN_POINT ( 'NONE',  ( 0.000000000000000000, 0.000000000000000000, 7.000000000000000000 ) ) ;
#87 = LINE ( 'NONE', #32, #116 ) ;
#88 = CYLINDRICAL_SURFACE ( 'NONE', #132, 10.00000000000000000 ) ;
#89 = CIRCLE ( 'NONE', #23, 14.00000000000000000 ) ;
#90 = COORDINATED_UNIVERSAL_TIME_OFFSET ( 1, 0, .AHEAD. ) ;
#91 = APPLICATION_CONTEXT ( 'configuration controlled 3d designs of mechanical parts and assemblies' ) ;
#92 = APPROVAL_DATE_TIME ( #16, #26 ) ;
#93 = PERSON_AND_ORGANIZATION ( #198, #183 ) ;
#94 = CIRCLE ( 'NONE', #229, 14.00000000000000000 ) ;
#95 = EDGE_LOOP ( 'NONE', ( #82, #81, #182, #189 ) ) ;
#96 = CARTESIAN_POINT ( 'NONE',  ( 0.000000000000000000, 0.000000000000000000, 7.000000000000000000 ) ) ;
#97 = EDGE_LOOP ( 'NONE', ( #54, #24, #158, #100 ) ) ;
#98 = APPROVAL_PERSON_ORGANIZATION ( #179, #79, #22 ) ;
#99 = ORIENTED_EDGE ( 'NONE', *, *, #171, .T. ) ;
#100 = ORIENTED_EDGE ( 'NONE', *, *, #236, .T. ) ;
#101 = FACE_OUTER_BOUND ( 'NONE', #169, .T. ) ;
#102 = AXIS2_PLACEMENT_3D ( 'NONE', #246, #112, #232 ) ;
#103 = CYLINDRICAL_SURFACE ( 'NONE', #217, 14.00000000000000000 ) ;
#104 = PLANE ( 'NONE',  #43 ) ;
#105 = DIRECTION ( 'NONE',  ( 1.000000000000000000, 0.000000000000000000, 0.000000000000000000 ) ) ;
#106 = CC_DESIGN_PERSON_AND_ORGANIZATION_ASSIGNMENT ( #137, #77, ( #254 ) ) ;
#107 = DIRECTION ( 'NONE',  ( 1.000000000000000000, 0.000000000000000000, 0.000000000000000000 ) ) ;
#108 = PRODUCT_DEFINITION_SHAPE ( 'NONE', 'NONE',  #219 ) ;
#109 = APPROVAL_STATUS ( 'not_yet_approved' ) ;
#110 = ORIENTED_EDGE ( 'NONE', *, *, #75, .F. ) ;
#111 = CIRCLE ( 'NONE', #15, 10.00000000000000000 ) ;
#112 = DIRECTION ( 'NONE',  ( -0.000000000000000000, -0.000000000000000000, -1.000000000000000000 ) ) ;
#113 = ADVANCED_BREP_SHAPE_REPRESENTATION ( '9067', ( #237, #239 ), #71 ) ;
#114 = EDGE_CURVE ( 'NONE', #131, #211, #38, .T. ) ;
#115 = PRODUCT_DEFINITION_FORMATION_WITH_SPECIFIED_SOURCE ( 'LIBOVOLNÝ', '', #10, .NOT_KNOWN. ) ;
#116 = VECTOR ( 'NONE', #146, 1000.000000000000000 ) ;
#117 = ORIENTED_EDGE ( 'NONE', *, *, #194, .T. ) ;
#118 = CALENDAR_DATE ( 2023, 13, 2 ) ;
#119 = DIRECTION ( 'NONE',  ( 1.000000000000000000, 0.000000000000000000, -0.000000000000000000 ) ) ;
#120 = APPROVAL_DATE_TIME ( #164, #40 ) ;
#121 = CARTESIAN_POINT ( 'NONE',  ( 0.000000000000000000, 0.000000000000000000, 0.000000000000000000 ) ) ;
#122 = EDGE_CURVE ( 'NONE', #180, #230, #168, .T. ) ;
#123 = VECTOR ( 'NONE', #12, 1000.000000000000000 ) ;
#124 = DIRECTION ( 'NONE',  ( -1.000000000000000000, 0.000000000000000000, 0.000000000000000000 ) ) ;
#125 = DIRECTION ( 'NONE',  ( 1.000000000000000000, 0.000000000000000000, -0.000000000000000000 ) ) ;
#126 = DIRECTION ( 'NONE',  ( 0.000000000000000000, 0.000000000000000000, 1.000000000000000000 ) ) ;
#127 = AXIS2_PLACEMENT_3D ( 'NONE', #1, #238, #241 ) ;
#128 = VERTEX_POINT ( 'NONE', #142 ) ;
#129 = CALENDAR_DATE ( 2023, 13, 2 ) ;
#130 = CARTESIAN_POINT ( 'NONE',  ( 14.00000000000000000, 1.714505518806294638E-15, 0.000000000000000000 ) ) ;
#131 = VERTEX_POINT ( 'NONE', #209 ) ;
#132 = AXIS2_PLACEMENT_3D ( 'NONE', #8, #208, #124 ) ;
#133 = CYLINDRICAL_SURFACE ( 'NONE', #29, 14.00000000000000000 ) ;
#134 = DATE_AND_TIME ( #118, #67 ) ;
#135 = ORIENTED_EDGE ( 'NONE', *, *, #152, .T. ) ;
#136 = ORIENTED_EDGE ( 'NONE', *, *, #114, .F. ) ;
#137 = PERSON_AND_ORGANIZATION ( #198, #183 ) ;
#138 = AXIS2_PLACEMENT_3D ( 'NONE', #65, #240, #125 ) ;
#139 = DIRECTION ( 'NONE',  ( 1.000000000000000000, 0.000000000000000000, 0.000000000000000000 ) ) ;
#140 = CC_DESIGN_PERSON_AND_ORGANIZATION_ASSIGNMENT ( #27, #161, ( #115 ) ) ;
#141 = DIRECTION ( 'NONE',  ( -0.000000000000000000, -0.000000000000000000, -1.000000000000000000 ) ) ;
#142 = CARTESIAN_POINT ( 'NONE',  ( 14.00000000000000000, 1.714505518806294638E-15, 7.000000000000000000 ) ) ;
#143 = VECTOR ( 'NONE', #52, 1000.000000000000000 ) ;
#144 = DIRECTION ( 'NONE',  ( 1.000000000000000000, 0.000000000000000000, -0.000000000000000000 ) ) ;
#145 = EDGE_CURVE ( 'NONE', #230, #180, #94, .T. ) ;
#146 = DIRECTION ( 'NONE',  ( -0.000000000000000000, -0.000000000000000000, -1.000000000000000000 ) ) ;
#147 = CARTESIAN_POINT ( 'NONE',  ( 0.000000000000000000, 0.000000000000000000, 7.000000000000000000 ) ) ;
#148 = CARTESIAN_POINT ( 'NONE',  ( 10.00000000000000000, 1.224646799147353256E-15, 125.0000000000000000 ) ) ;
#149 = APPROVAL_PERSON_ORGANIZATION ( #35, #40, #235 ) ;
#150 = CYLINDRICAL_SURFACE ( 'NONE', #102, 10.00000000000000000 ) ;
#151 = PERSON_AND_ORGANIZATION ( #198, #183 ) ;
#152 = EDGE_CURVE ( 'NONE', #211, #131, #243, .T. ) ;
#153 = VECTOR ( 'NONE', #193, 1000.000000000000000 ) ;
#154 = APPROVAL_STATUS ( 'not_yet_approved' ) ;
#155 = LOCAL_TIME ( 9, 41, 47.00000000000000000, #172 ) ;
#156 = ADVANCED_FACE ( 'NONE', ( #207 ), #63, .T. ) ;
#157 = EDGE_LOOP ( 'NONE', ( #17, #99, #174, #110 ) ) ;
#158 = ORIENTED_EDGE ( 'NONE', *, *, #66, .T. ) ;
#159 = PERSON_AND_ORGANIZATION_ROLE ( 'design_supplier' ) ;
#160 = LINE ( 'NONE', #226, #143 ) ;
#161 = PERSON_AND_ORGANIZATION_ROLE ( 'creator' ) ;
#162 = CIRCLE ( 'NONE', #76, 10.00000000000000000 ) ;
#163 = DIRECTION ( 'NONE',  ( 1.000000000000000000, 0.000000000000000000, 0.000000000000000000 ) ) ;
#164 = DATE_AND_TIME ( #2, #206 ) ;
#165 = DIRECTION ( 'NONE',  ( 0.000000000000000000, 0.000000000000000000, 1.000000000000000000 ) ) ;
#166 = ADVANCED_FACE ( 'NONE', ( #203 ), #103, .T. ) ;
#167 = DIRECTION ( 'NONE',  ( 1.000000000000000000, 0.000000000000000000, 0.000000000000000000 ) ) ;
#168 = CIRCLE ( 'NONE', #9, 14.00000000000000000 ) ;
#169 = EDGE_LOOP ( 'NONE', ( #177, #253 ) ) ;
#170 = DATE_AND_TIME ( #129, #221 ) ;
#171 = EDGE_CURVE ( 'NONE', #128, #180, #188, .T. ) ;
#172 = COORDINATED_UNIVERSAL_TIME_OFFSET ( 1, 0, .AHEAD. ) ;
#173 = APPROVAL_PERSON_ORGANIZATION ( #151, #26, #18 ) ;
#174 = ORIENTED_EDGE ( 'NONE', *, *, #122, .T. ) ;
#175 = PERSON_AND_ORGANIZATION_ROLE ( 'design_owner' ) ;
#176 = CC_DESIGN_DATE_AND_TIME_ASSIGNMENT ( #170, #245, ( #219 ) ) ;
#177 = ORIENTED_EDGE ( 'NONE', *, *, #145, .F. ) ;
#178 = DATE_TIME_ROLE ( 'classification_date' ) ;
#179 = PERSON_AND_ORGANIZATION ( #198, #183 ) ;
#180 = VERTEX_POINT ( 'NONE', #130 ) ;
#181 = ADVANCED_FACE ( 'NONE', ( #11 ), #150, .T. ) ;
#182 = ORIENTED_EDGE ( 'NONE', *, *, #75, .T. ) ;
#183 = ORGANIZATION ( 'NEURÈENÝ', 'NEURÈENÝ', '' ) ;
#184 = ORIENTED_EDGE ( 'NONE', *, *, #236, .F. ) ;
#185 = VERTEX_POINT ( 'NONE', #69 ) ;
#186 = COORDINATED_UNIVERSAL_TIME_OFFSET ( 1, 0, .AHEAD. ) ;
#187 = DIRECTION ( 'NONE',  ( -1.000000000000000000, 0.000000000000000000, 0.000000000000000000 ) ) ;
#188 = LINE ( 'NONE', #3, #153 ) ;
#189 = ORIENTED_EDGE ( 'NONE', *, *, #145, .T. ) ;
#190 = CC_DESIGN_PERSON_AND_ORGANIZATION_ASSIGNMENT ( #93, #175, ( #10 ) ) ;
#191 = CARTESIAN_POINT ( 'NONE',  ( 0.000000000000000000, 0.000000000000000000, 7.000000000000000000 ) ) ;
#192 = APPLICATION_PROTOCOL_DEFINITION ( 'international standard', 'config_control_design', 1994, #72 ) ;
#193 = DIRECTION ( 'NONE',  ( -0.000000000000000000, -0.000000000000000000, -1.000000000000000000 ) ) ;
#194 = EDGE_CURVE ( 'NONE', #131, #21, #13, .T. ) ;
#195 = MECHANICAL_CONTEXT ( 'NONE', #91, 'mechanical' ) ;
#196 = APPROVAL_STATUS ( 'not_yet_approved' ) ;
#197 = PRODUCT_RELATED_PRODUCT_CATEGORY ( 'detail', '', ( #10 ) ) ;
#198 = PERSON ( 'NEURÈENÝ', 'NEURÈENÝ', 'NEURÈENÝ', ('NEURÈENÝ'), ('NEURÈENÝ'), ('NEURÈENÝ') ) ;
#199 = SHAPE_DEFINITION_REPRESENTATION ( #108, #113 ) ;
#200 = COORDINATED_UNIVERSAL_TIME_OFFSET ( 1, 0, .AHEAD. ) ;
#201 = EDGE_LOOP ( 'NONE', ( #135, #60 ) ) ;
#202 = APPROVAL_DATE_TIME ( #204, #79 ) ;
#203 = FACE_OUTER_BOUND ( 'NONE', #95, .T. ) ;
#204 = DATE_AND_TIME ( #19, #248 ) ;
#205 = DIRECTION ( 'NONE',  ( 0.000000000000000000, 0.000000000000000000, 1.000000000000000000 ) ) ;
#206 = LOCAL_TIME ( 9, 41, 47.00000000000000000, #186 ) ;
#207 = FACE_OUTER_BOUND ( 'NONE', #201, .T. ) ;
#208 = DIRECTION ( 'NONE',  ( -0.000000000000000000, -0.000000000000000000, -1.000000000000000000 ) ) ;
#209 = CARTESIAN_POINT ( 'NONE',  ( 10.00000000000000000, 1.224646799147353256E-15, 125.0000000000000000 ) ) ;
#210 = DIRECTION ( 'NONE',  ( 0.000000000000000000, 0.000000000000000000, 1.000000000000000000 ) ) ;
#211 = VERTEX_POINT ( 'NONE', #55 ) ;
#212 = UNCERTAINTY_MEASURE_WITH_UNIT (LENGTH_MEASURE( 1.000000000000000082E-05 ), #37, 'distance_accuracy_value', 'NONE');
#213 = DIRECTION ( 'NONE',  ( -0.000000000000000000, -0.000000000000000000, -1.000000000000000000 ) ) ;
#214 = APPLICATION_PROTOCOL_DEFINITION ( 'international standard', 'config_control_design', 1994, #91 ) ;
#215 = PERSON_AND_ORGANIZATION ( #198, #183 ) ;
#216 = ADVANCED_FACE ( 'NONE', ( #247 ), #133, .T. ) ;
#217 = AXIS2_PLACEMENT_3D ( 'NONE', #25, #141, #187 ) ;
#218 = EDGE_LOOP ( 'NONE', ( #136, #117, #30, #45 ) ) ;
#219 = PRODUCT_DEFINITION ( 'NEZNÁMÝ', '', #115, #227 ) ;
#220 = ORIENTED_EDGE ( 'NONE', *, *, #20, .T. ) ;
#221 = LOCAL_TIME ( 9, 41, 47.00000000000000000, #90 ) ;
#222 = CARTESIAN_POINT ( 'NONE',  ( 0.000000000000000000, 0.000000000000000000, 125.0000000000000000 ) ) ;
#223 = FACE_BOUND ( 'NONE', #250, .T. ) ;
#224 = CC_DESIGN_APPROVAL ( #40, ( #115 ) ) ;
#225 = DIRECTION ( 'NONE',  ( 0.000000000000000000, 0.000000000000000000, 1.000000000000000000 ) ) ;
#226 = CARTESIAN_POINT ( 'NONE',  ( -14.00000000000000000, 0.000000000000000000, 7.000000000000000000 ) ) ;
#227 = DESIGN_CONTEXT ( 'detailed design', #72, 'design' ) ;
#228 = CARTESIAN_POINT ( 'NONE',  ( -14.00000000000000000, 0.000000000000000000, 0.000000000000000000 ) ) ;
#229 = AXIS2_PLACEMENT_3D ( 'NONE', #121, #33, #163 ) ;
#230 = VERTEX_POINT ( 'NONE', #228 ) ;
#231 = CALENDAR_DATE ( 2023, 13, 2 ) ;
#232 = DIRECTION ( 'NONE',  ( -1.000000000000000000, 0.000000000000000000, 0.000000000000000000 ) ) ;
#233 = CIRCLE ( 'NONE', #84, 14.00000000000000000 ) ;
#234 = CC_DESIGN_DATE_AND_TIME_ASSIGNMENT ( #134, #178, ( #254 ) ) ;
#235 = APPROVAL_ROLE ( '' ) ;
#236 = EDGE_CURVE ( 'NONE', #185, #21, #162, .T. ) ;
#237 = MANIFOLD_SOLID_BREP ( 'Pøidat vysunutím3', #252 ) ;
#238 = DIRECTION ( 'NONE',  ( 0.000000000000000000, 0.000000000000000000, 1.000000000000000000 ) ) ;
#239 = AXIS2_PLACEMENT_3D ( 'NONE', #36, #210, #74 ) ;
#240 = DIRECTION ( 'NONE',  ( 0.000000000000000000, 0.000000000000000000, 1.000000000000000000 ) ) ;
#241 = DIRECTION ( 'NONE',  ( 1.000000000000000000, 0.000000000000000000, 0.000000000000000000 ) ) ;
#242 = DIRECTION ( 'NONE',  ( 0.000000000000000000, 0.000000000000000000, 1.000000000000000000 ) ) ;
#243 = CIRCLE ( 'NONE', #46, 10.00000000000000000 ) ;
#244 = EDGE_LOOP ( 'NONE', ( #220, #255 ) ) ;
#245 = DATE_TIME_ROLE ( 'creation_date' ) ;
#246 = CARTESIAN_POINT ( 'NONE',  ( 0.000000000000000000, 0.000000000000000000, 125.0000000000000000 ) ) ;
#247 = FACE_OUTER_BOUND ( 'NONE', #157, .T. ) ;
#248 = LOCAL_TIME ( 9, 41, 47.00000000000000000, #48 ) ;
#249 =( NAMED_UNIT ( * ) SI_UNIT ( $, .STERADIAN. ) SOLID_ANGLE_UNIT ( ) );
#250 = EDGE_LOOP ( 'NONE', ( #184, #73 ) ) ;
#251 = SECURITY_CLASSIFICATION_LEVEL ( 'unclassified' ) ;
#252 = CLOSED_SHELL ( 'NONE', ( #181, #216, #166, #4, #56, #14, #156 ) ) ;
#253 = ORIENTED_EDGE ( 'NONE', *, *, #122, .F. ) ;
#254 = SECURITY_CLASSIFICATION ( '', '', #251 ) ;
#255 = ORIENTED_EDGE ( 'NONE', *, *, #7, .T. ) ;
ENDSEC;
END-ISO-10303-21;
