ISO-10303-21;
HEADER;
FILE_DESCRIPTION (( 'STEP AP203' ),
    '1' );
FILE_NAME ('2673.STEP',
    '2023-02-13T11:33:14',
    ( '' ),
    ( '' ),
    'SwSTEP 2.0',
    'SolidWorks 2019',
    '' );
FILE_SCHEMA (( 'CONFIG_CONTROL_DESIGN' ));
ENDSEC;

DATA;
#1 = CIRCLE ( 'NONE', #7, 9.000000000000000000 ) ;
#2 = PERSON_AND_ORGANIZATION_ROLE ( 'creator' ) ;
#3 = PERSON_AND_ORGANIZATION ( #180, #154 ) ;
#4 = VERTEX_POINT ( 'NONE', #131 ) ;
#5 = UNCERTAINTY_MEASURE_WITH_UNIT (LENGTH_MEASURE( 1.000000000000000082E-05 ), #201, 'distance_accuracy_value', 'NONE');
#6 = DATE_TIME_ROLE ( 'classification_date' ) ;
#7 = AXIS2_PLACEMENT_3D ( 'NONE', #245, #142, #223 ) ;
#8 = PERSON_AND_ORGANIZATION_ROLE ( 'design_supplier' ) ;
#9 = DATE_AND_TIME ( #26, #80 ) ;
#10 = DIRECTION ( 'NONE',  ( 1.000000000000000000, 0.000000000000000000, 0.000000000000000000 ) ) ;
#11 = DIRECTION ( 'NONE',  ( 0.000000000000000000, 0.000000000000000000, 1.000000000000000000 ) ) ;
#12 = EDGE_CURVE ( 'NONE', #70, #43, #176, .T. ) ;
#13 = AXIS2_PLACEMENT_3D ( 'NONE', #66, #200, #218 ) ;
#14 = ORIENTED_EDGE ( 'NONE', *, *, #161, .F. ) ;
#15 = CC_DESIGN_PERSON_AND_ORGANIZATION_ASSIGNMENT ( #23, #89, ( #170 ) ) ;
#16 = CYLINDRICAL_SURFACE ( 'NONE', #232, 9.000000000000000000 ) ;
#17 = VECTOR ( 'NONE', #67, 1000.000000000000000 ) ;
#18 = FACE_OUTER_BOUND ( 'NONE', #37, .T. ) ;
#19 = EDGE_LOOP ( 'NONE', ( #14, #178, #193, #163 ) ) ;
#20 = EDGE_CURVE ( 'NONE', #132, #22, #31, .T. ) ;
#21 = PERSON_AND_ORGANIZATION ( #180, #154 ) ;
#22 = VERTEX_POINT ( 'NONE', #102 ) ;
#23 = PERSON_AND_ORGANIZATION ( #180, #154 ) ;
#24 = DATE_AND_TIME ( #196, #25 ) ;
#25 = LOCAL_TIME ( 12, 33, 14.00000000000000000, #209 ) ;
#26 = CALENDAR_DATE ( 2023, 13, 2 ) ;
#27 = CYLINDRICAL_SURFACE ( 'NONE', #123, 5.500000000000000000 ) ;
#28 = EDGE_CURVE ( 'NONE', #22, #70, #63, .T. ) ;
#29 = PLANE ( 'NONE',  #35 ) ;
#30 = CARTESIAN_POINT ( 'NONE',  ( 5.500000000000000000, 6.735557395310442023E-16, 1000.000000000000000 ) ) ;
#31 = CIRCLE ( 'NONE', #52, 5.500000000000000000 ) ;
#32 = DIRECTION ( 'NONE',  ( 1.000000000000000000, 0.000000000000000000, 0.000000000000000000 ) ) ;
#33 = CC_DESIGN_SECURITY_CLASSIFICATION ( #164, ( #82 ) ) ;
#34 = ORIENTED_EDGE ( 'NONE', *, *, #226, .F. ) ;
#35 = AXIS2_PLACEMENT_3D ( 'NONE', #215, #11, #158 ) ;
#36 = CARTESIAN_POINT ( 'NONE',  ( 0.000000000000000000, 0.000000000000000000, 6.500000000000000000 ) ) ;
#37 = EDGE_LOOP ( 'NONE', ( #251, #203 ) ) ;
#38 =( NAMED_UNIT ( * ) PLANE_ANGLE_UNIT ( ) SI_UNIT ( $, .RADIAN. ) );
#39 =( NAMED_UNIT ( * ) SI_UNIT ( $, .STERADIAN. ) SOLID_ANGLE_UNIT ( ) );
#40 = APPLICATION_PROTOCOL_DEFINITION ( 'international standard', 'config_control_design', 1994, #113 ) ;
#41 = APPROVAL ( #69, 'NEURÈENÝ' ) ;
#42 = APPROVAL_PERSON_ORGANIZATION ( #212, #41, #114 ) ;
#43 = VERTEX_POINT ( 'NONE', #220 ) ;
#44 = CC_DESIGN_DATE_AND_TIME_ASSIGNMENT ( #9, #6, ( #164 ) ) ;
#45 = COORDINATED_UNIVERSAL_TIME_OFFSET ( 1, 0, .AHEAD. ) ;
#46 = DIRECTION ( 'NONE',  ( 0.000000000000000000, 0.000000000000000000, 1.000000000000000000 ) ) ;
#47 = CC_DESIGN_APPROVAL ( #41, ( #82 ) ) ;
#48 = LINE ( 'NONE', #186, #148 ) ;
#49 = VECTOR ( 'NONE', #238, 1000.000000000000000 ) ;
#50 = PLANE ( 'NONE',  #168 ) ;
#51 = APPROVAL_PERSON_ORGANIZATION ( #109, #120, #92 ) ;
#52 = AXIS2_PLACEMENT_3D ( 'NONE', #156, #134, #118 ) ;
#53 = DIRECTION ( 'NONE',  ( 0.000000000000000000, 0.000000000000000000, 1.000000000000000000 ) ) ;
#54 = DIRECTION ( 'NONE',  ( -1.000000000000000000, 0.000000000000000000, 0.000000000000000000 ) ) ;
#55 = DIRECTION ( 'NONE',  ( 1.000000000000000000, 0.000000000000000000, -0.000000000000000000 ) ) ;
#56 = AXIS2_PLACEMENT_3D ( 'NONE', #99, #241, #100 ) ;
#57 = ADVANCED_FACE ( 'NONE', ( #244 ), #198, .T. ) ;
#58 = MECHANICAL_CONTEXT ( 'NONE', #113, 'mechanical' ) ;
#59 = LOCAL_TIME ( 12, 33, 14.00000000000000000, #45 ) ;
#60 = MANIFOLD_SOLID_BREP ( 'Pøidat vysunutím3', #185 ) ;
#61 = CARTESIAN_POINT ( 'NONE',  ( 0.000000000000000000, 0.000000000000000000, 6.500000000000000000 ) ) ;
#62 = PERSON_AND_ORGANIZATION ( #180, #154 ) ;
#63 = LINE ( 'NONE', #30, #49 ) ;
#64 = DIRECTION ( 'NONE',  ( 1.000000000000000000, 0.000000000000000000, 0.000000000000000000 ) ) ;
#65 = CARTESIAN_POINT ( 'NONE',  ( 0.000000000000000000, 0.000000000000000000, 1000.000000000000000 ) ) ;
#66 = CARTESIAN_POINT ( 'NONE',  ( 0.000000000000000000, 0.000000000000000000, 0.000000000000000000 ) ) ;
#67 = DIRECTION ( 'NONE',  ( -0.000000000000000000, -0.000000000000000000, -1.000000000000000000 ) ) ;
#68 = ORIENTED_EDGE ( 'NONE', *, *, #71, .T. ) ;
#69 = APPROVAL_STATUS ( 'not_yet_approved' ) ;
#70 = VERTEX_POINT ( 'NONE', #221 ) ;
#71 = EDGE_CURVE ( 'NONE', #126, #169, #85, .T. ) ;
#72 = AXIS2_PLACEMENT_3D ( 'NONE', #254, #122, #32 ) ;
#73 = COORDINATED_UNIVERSAL_TIME_OFFSET ( 1, 0, .AHEAD. ) ;
#74 = DIRECTION ( 'NONE',  ( 1.000000000000000000, 0.000000000000000000, 0.000000000000000000 ) ) ;
#75 = CIRCLE ( 'NONE', #56, 9.000000000000000000 ) ;
#76 = LOCAL_TIME ( 12, 33, 14.00000000000000000, #73 ) ;
#77 = CC_DESIGN_PERSON_AND_ORGANIZATION_ASSIGNMENT ( #230, #128, ( #82 ) ) ;
#78 = ADVANCED_FACE ( 'NONE', ( #217 ), #29, .T. ) ;
#79 = CARTESIAN_POINT ( 'NONE',  ( 9.000000000000000000, 1.102182119232617517E-15, 6.500000000000000000 ) ) ;
#80 = LOCAL_TIME ( 12, 33, 14.00000000000000000, #214 ) ;
#81 = PLANE ( 'NONE',  #112 ) ;
#82 = PRODUCT_DEFINITION_FORMATION_WITH_SPECIFIED_SOURCE ( 'LIBOVOLNÝ', '', #170, .NOT_KNOWN. ) ;
#83 = ADVANCED_BREP_SHAPE_REPRESENTATION ( '2673', ( #60, #194 ), #149 ) ;
#84 = EDGE_LOOP ( 'NONE', ( #152, #94 ) ) ;
#85 = CIRCLE ( 'NONE', #211, 9.000000000000000000 ) ;
#86 = CALENDAR_DATE ( 2023, 13, 2 ) ;
#87 = ORIENTED_EDGE ( 'NONE', *, *, #98, .T. ) ;
#88 = ORIENTED_EDGE ( 'NONE', *, *, #20, .T. ) ;
#89 = PERSON_AND_ORGANIZATION_ROLE ( 'design_owner' ) ;
#90 = APPLICATION_PROTOCOL_DEFINITION ( 'international standard', 'config_control_design', 1994, #95 ) ;
#91 = CC_DESIGN_PERSON_AND_ORGANIZATION_ASSIGNMENT ( #21, #8, ( #82 ) ) ;
#92 = APPROVAL_ROLE ( '' ) ;
#93 = DATE_AND_TIME ( #140, #59 ) ;
#94 = ORIENTED_EDGE ( 'NONE', *, *, #12, .F. ) ;
#95 = APPLICATION_CONTEXT ( 'configuration controlled 3d designs of mechanical parts and assemblies' ) ;
#96 = DIRECTION ( 'NONE',  ( 0.000000000000000000, 0.000000000000000000, 1.000000000000000000 ) ) ;
#97 = CARTESIAN_POINT ( 'NONE',  ( 0.000000000000000000, 0.000000000000000000, 6.500000000000000000 ) ) ;
#98 = EDGE_CURVE ( 'NONE', #146, #4, #75, .T. ) ;
#99 = CARTESIAN_POINT ( 'NONE',  ( 0.000000000000000000, 0.000000000000000000, 0.000000000000000000 ) ) ;
#100 = DIRECTION ( 'NONE',  ( 1.000000000000000000, 0.000000000000000000, 0.000000000000000000 ) ) ;
#101 = LOCAL_TIME ( 12, 33, 14.00000000000000000, #147 ) ;
#102 = CARTESIAN_POINT ( 'NONE',  ( 5.500000000000000000, 6.735557395310442023E-16, 1000.000000000000000 ) ) ;
#103 = FACE_OUTER_BOUND ( 'NONE', #213, .T. ) ;
#104 = APPROVAL_PERSON_ORGANIZATION ( #62, #252, #119 ) ;
#105 = DIRECTION ( 'NONE',  ( -0.000000000000000000, -0.000000000000000000, -1.000000000000000000 ) ) ;
#106 = CIRCLE ( 'NONE', #130, 5.500000000000000000 ) ;
#107 = FACE_OUTER_BOUND ( 'NONE', #19, .T. ) ;
#108 = ORIENTED_EDGE ( 'NONE', *, *, #127, .T. ) ;
#109 = PERSON_AND_ORGANIZATION ( #180, #154 ) ;
#110 = CIRCLE ( 'NONE', #243, 5.500000000000000000 ) ;
#111 = EDGE_LOOP ( 'NONE', ( #173, #125, #234, #129 ) ) ;
#112 = AXIS2_PLACEMENT_3D ( 'NONE', #162, #228, #55 ) ;
#113 = APPLICATION_CONTEXT ( 'configuration controlled 3d designs of mechanical parts and assemblies' ) ;
#114 = APPROVAL_ROLE ( '' ) ;
#115 = ORIENTED_EDGE ( 'NONE', *, *, #28, .F. ) ;
#116 = DIRECTION ( 'NONE',  ( 1.000000000000000000, 0.000000000000000000, -0.000000000000000000 ) ) ;
#117 = CIRCLE ( 'NONE', #13, 9.000000000000000000 ) ;
#118 = DIRECTION ( 'NONE',  ( 1.000000000000000000, 0.000000000000000000, 0.000000000000000000 ) ) ;
#119 = APPROVAL_ROLE ( '' ) ;
#120 = APPROVAL ( #255, 'NEURÈENÝ' ) ;
#121 = DIRECTION ( 'NONE',  ( -0.000000000000000000, -0.000000000000000000, -1.000000000000000000 ) ) ;
#122 = DIRECTION ( 'NONE',  ( 0.000000000000000000, 0.000000000000000000, 1.000000000000000000 ) ) ;
#123 = AXIS2_PLACEMENT_3D ( 'NONE', #181, #191, #54 ) ;
#124 = EDGE_CURVE ( 'NONE', #132, #43, #184, .T. ) ;
#125 = ORIENTED_EDGE ( 'NONE', *, *, #28, .T. ) ;
#126 = VERTEX_POINT ( 'NONE', #187 ) ;
#127 = EDGE_CURVE ( 'NONE', #22, #132, #106, .T. ) ;
#128 = PERSON_AND_ORGANIZATION_ROLE ( 'creator' ) ;
#129 = ORIENTED_EDGE ( 'NONE', *, *, #124, .F. ) ;
#130 = AXIS2_PLACEMENT_3D ( 'NONE', #65, #96, #64 ) ;
#131 = CARTESIAN_POINT ( 'NONE',  ( -9.000000000000000000, 0.000000000000000000, 0.000000000000000000 ) ) ;
#132 = VERTEX_POINT ( 'NONE', #138 ) ;
#133 = DESIGN_CONTEXT ( 'detailed design', #95, 'design' ) ;
#134 = DIRECTION ( 'NONE',  ( 0.000000000000000000, 0.000000000000000000, 1.000000000000000000 ) ) ;
#135 = APPROVAL_STATUS ( 'not_yet_approved' ) ;
#136 = DIRECTION ( 'NONE',  ( 0.000000000000000000, 0.000000000000000000, 1.000000000000000000 ) ) ;
#137 = PERSON_AND_ORGANIZATION_ROLE ( 'classification_officer' ) ;
#138 = CARTESIAN_POINT ( 'NONE',  ( -5.500000000000000000, 0.000000000000000000, 1000.000000000000000 ) ) ;
#139 = AXIS2_PLACEMENT_3D ( 'NONE', #246, #204, #159 ) ;
#140 = CALENDAR_DATE ( 2023, 13, 2 ) ;
#141 = FACE_OUTER_BOUND ( 'NONE', #237, .T. ) ;
#142 = DIRECTION ( 'NONE',  ( 0.000000000000000000, 0.000000000000000000, 1.000000000000000000 ) ) ;
#143 = EDGE_CURVE ( 'NONE', #4, #146, #117, .T. ) ;
#144 = CARTESIAN_POINT ( 'NONE',  ( -9.000000000000000000, 0.000000000000000000, 6.500000000000000000 ) ) ;
#145 = ORIENTED_EDGE ( 'NONE', *, *, #124, .T. ) ;
#146 = VERTEX_POINT ( 'NONE', #189 ) ;
#147 = COORDINATED_UNIVERSAL_TIME_OFFSET ( 1, 0, .AHEAD. ) ;
#148 = VECTOR ( 'NONE', #153, 1000.000000000000000 ) ;
#149 =( GEOMETRIC_REPRESENTATION_CONTEXT ( 3 ) GLOBAL_UNCERTAINTY_ASSIGNED_CONTEXT ( ( #5 ) ) GLOBAL_UNIT_ASSIGNED_CONTEXT ( ( #201, #38, #39 ) ) REPRESENTATION_CONTEXT ( 'NONE', 'WORKASPACE' ) );
#150 = CALENDAR_DATE ( 2023, 13, 2 ) ;
#151 = EDGE_LOOP ( 'NONE', ( #115, #205, #145, #166 ) ) ;
#152 = ORIENTED_EDGE ( 'NONE', *, *, #210, .F. ) ;
#153 = DIRECTION ( 'NONE',  ( -0.000000000000000000, -0.000000000000000000, -1.000000000000000000 ) ) ;
#154 = ORGANIZATION ( 'NEURÈENÝ', 'NEURÈENÝ', '' ) ;
#155 = DIRECTION ( 'NONE',  ( -1.000000000000000000, 0.000000000000000000, 0.000000000000000000 ) ) ;
#156 = CARTESIAN_POINT ( 'NONE',  ( 0.000000000000000000, 0.000000000000000000, 1000.000000000000000 ) ) ;
#157 = CARTESIAN_POINT ( 'NONE',  ( 0.000000000000000000, 0.000000000000000000, 1000.000000000000000 ) ) ;
#158 = DIRECTION ( 'NONE',  ( 1.000000000000000000, 0.000000000000000000, -0.000000000000000000 ) ) ;
#159 = DIRECTION ( 'NONE',  ( -1.000000000000000000, 0.000000000000000000, 0.000000000000000000 ) ) ;
#160 = PRODUCT_RELATED_PRODUCT_CATEGORY ( 'detail', '', ( #170 ) ) ;
#161 = EDGE_CURVE ( 'NONE', #169, #146, #48, .T. ) ;
#162 = CARTESIAN_POINT ( 'NONE',  ( 0.000000000000000000, 0.000000000000000000, 0.000000000000000000 ) ) ;
#163 = ORIENTED_EDGE ( 'NONE', *, *, #143, .T. ) ;
#164 = SECURITY_CLASSIFICATION ( '', '', #239 ) ;
#165 = DATE_AND_TIME ( #86, #101 ) ;
#166 = ORIENTED_EDGE ( 'NONE', *, *, #210, .T. ) ;
#167 = PRODUCT_DEFINITION_SHAPE ( 'NONE', 'NONE',  #233 ) ;
#168 = AXIS2_PLACEMENT_3D ( 'NONE', #61, #46, #116 ) ;
#169 = VERTEX_POINT ( 'NONE', #79 ) ;
#170 = PRODUCT ( '2673', '2673', '', ( #58 ) ) ;
#171 = ADVANCED_FACE ( 'NONE', ( #242, #141 ), #50, .T. ) ;
#172 = APPROVAL_DATE_TIME ( #24, #120 ) ;
#173 = ORIENTED_EDGE ( 'NONE', *, *, #127, .F. ) ;
#174 = CC_DESIGN_DATE_AND_TIME_ASSIGNMENT ( #235, #195, ( #233 ) ) ;
#175 = ORIENTED_EDGE ( 'NONE', *, *, #226, .T. ) ;
#176 = CIRCLE ( 'NONE', #72, 5.500000000000000000 ) ;
#177 = APPROVAL_DATE_TIME ( #93, #252 ) ;
#178 = ORIENTED_EDGE ( 'NONE', *, *, #71, .F. ) ;
#179 = ADVANCED_FACE ( 'NONE', ( #197 ), #27, .T. ) ;
#180 = PERSON ( 'NEURÈENÝ', 'NEURÈENÝ', 'NEURÈENÝ', ('NEURÈENÝ'), ('NEURÈENÝ'), ('NEURÈENÝ') ) ;
#181 = CARTESIAN_POINT ( 'NONE',  ( 0.000000000000000000, 0.000000000000000000, 1000.000000000000000 ) ) ;
#182 = CC_DESIGN_PERSON_AND_ORGANIZATION_ASSIGNMENT ( #3, #2, ( #233 ) ) ;
#183 = SHAPE_DEFINITION_REPRESENTATION ( #167, #83 ) ;
#184 = LINE ( 'NONE', #240, #249 ) ;
#185 = CLOSED_SHELL ( 'NONE', ( #57, #222, #206, #171, #219, #179, #78 ) ) ;
#186 = CARTESIAN_POINT ( 'NONE',  ( 9.000000000000000000, 1.102182119232617517E-15, 6.500000000000000000 ) ) ;
#187 = CARTESIAN_POINT ( 'NONE',  ( -9.000000000000000000, 0.000000000000000000, 6.500000000000000000 ) ) ;
#188 = CC_DESIGN_APPROVAL ( #252, ( #164 ) ) ;
#189 = CARTESIAN_POINT ( 'NONE',  ( 9.000000000000000000, 1.102182119232617517E-15, 0.000000000000000000 ) ) ;
#190 = CYLINDRICAL_SURFACE ( 'NONE', #139, 9.000000000000000000 ) ;
#191 = DIRECTION ( 'NONE',  ( -0.000000000000000000, -0.000000000000000000, -1.000000000000000000 ) ) ;
#192 = DIRECTION ( 'NONE',  ( 1.000000000000000000, 0.000000000000000000, 0.000000000000000000 ) ) ;
#193 = ORIENTED_EDGE ( 'NONE', *, *, #208, .T. ) ;
#194 = AXIS2_PLACEMENT_3D ( 'NONE', #253, #231, #74 ) ;
#195 = DATE_TIME_ROLE ( 'creation_date' ) ;
#196 = CALENDAR_DATE ( 2023, 13, 2 ) ;
#197 = FACE_OUTER_BOUND ( 'NONE', #151, .T. ) ;
#198 = CYLINDRICAL_SURFACE ( 'NONE', #236, 5.500000000000000000 ) ;
#199 = DIRECTION ( 'NONE',  ( -0.000000000000000000, -0.000000000000000000, -1.000000000000000000 ) ) ;
#200 = DIRECTION ( 'NONE',  ( 0.000000000000000000, 0.000000000000000000, 1.000000000000000000 ) ) ;
#201 =( LENGTH_UNIT ( ) NAMED_UNIT ( * ) SI_UNIT ( .MILLI., .METRE. ) );
#202 = ORIENTED_EDGE ( 'NONE', *, *, #208, .F. ) ;
#203 = ORIENTED_EDGE ( 'NONE', *, *, #98, .F. ) ;
#204 = DIRECTION ( 'NONE',  ( -0.000000000000000000, -0.000000000000000000, -1.000000000000000000 ) ) ;
#205 = ORIENTED_EDGE ( 'NONE', *, *, #20, .F. ) ;
#206 = ADVANCED_FACE ( 'NONE', ( #107 ), #16, .T. ) ;
#207 = CC_DESIGN_PERSON_AND_ORGANIZATION_ASSIGNMENT ( #216, #137, ( #164 ) ) ;
#208 = EDGE_CURVE ( 'NONE', #126, #4, #248, .T. ) ;
#209 = COORDINATED_UNIVERSAL_TIME_OFFSET ( 1, 0, .AHEAD. ) ;
#210 = EDGE_CURVE ( 'NONE', #43, #70, #110, .T. ) ;
#211 = AXIS2_PLACEMENT_3D ( 'NONE', #97, #136, #10 ) ;
#212 = PERSON_AND_ORGANIZATION ( #180, #154 ) ;
#213 = EDGE_LOOP ( 'NONE', ( #34, #225, #87, #202 ) ) ;
#214 = COORDINATED_UNIVERSAL_TIME_OFFSET ( 1, 0, .AHEAD. ) ;
#215 = CARTESIAN_POINT ( 'NONE',  ( 0.000000000000000000, 0.000000000000000000, 1000.000000000000000 ) ) ;
#216 = PERSON_AND_ORGANIZATION ( #180, #154 ) ;
#217 = FACE_OUTER_BOUND ( 'NONE', #229, .T. ) ;
#218 = DIRECTION ( 'NONE',  ( 1.000000000000000000, 0.000000000000000000, 0.000000000000000000 ) ) ;
#219 = ADVANCED_FACE ( 'NONE', ( #18 ), #81, .F. ) ;
#220 = CARTESIAN_POINT ( 'NONE',  ( -5.500000000000000000, 0.000000000000000000, 6.500000000000000000 ) ) ;
#221 = CARTESIAN_POINT ( 'NONE',  ( 5.500000000000000000, 6.735557395310442023E-16, 6.500000000000000000 ) ) ;
#222 = ADVANCED_FACE ( 'NONE', ( #103 ), #190, .T. ) ;
#223 = DIRECTION ( 'NONE',  ( 1.000000000000000000, 0.000000000000000000, 0.000000000000000000 ) ) ;
#224 = CARTESIAN_POINT ( 'NONE',  ( 0.000000000000000000, 0.000000000000000000, 6.500000000000000000 ) ) ;
#225 = ORIENTED_EDGE ( 'NONE', *, *, #161, .T. ) ;
#226 = EDGE_CURVE ( 'NONE', #169, #126, #1, .T. ) ;
#227 = CC_DESIGN_APPROVAL ( #120, ( #233 ) ) ;
#228 = DIRECTION ( 'NONE',  ( 0.000000000000000000, 0.000000000000000000, 1.000000000000000000 ) ) ;
#229 = EDGE_LOOP ( 'NONE', ( #88, #108 ) ) ;
#230 = PERSON_AND_ORGANIZATION ( #180, #154 ) ;
#231 = DIRECTION ( 'NONE',  ( 0.000000000000000000, 0.000000000000000000, 1.000000000000000000 ) ) ;
#232 = AXIS2_PLACEMENT_3D ( 'NONE', #36, #105, #247 ) ;
#233 = PRODUCT_DEFINITION ( 'NEZNÁMÝ', '', #82, #133 ) ;
#234 = ORIENTED_EDGE ( 'NONE', *, *, #12, .T. ) ;
#235 = DATE_AND_TIME ( #150, #76 ) ;
#236 = AXIS2_PLACEMENT_3D ( 'NONE', #157, #199, #155 ) ;
#237 = EDGE_LOOP ( 'NONE', ( #68, #175 ) ) ;
#238 = DIRECTION ( 'NONE',  ( -0.000000000000000000, -0.000000000000000000, -1.000000000000000000 ) ) ;
#239 = SECURITY_CLASSIFICATION_LEVEL ( 'unclassified' ) ;
#240 = CARTESIAN_POINT ( 'NONE',  ( -5.500000000000000000, 0.000000000000000000, 1000.000000000000000 ) ) ;
#241 = DIRECTION ( 'NONE',  ( 0.000000000000000000, 0.000000000000000000, 1.000000000000000000 ) ) ;
#242 = FACE_BOUND ( 'NONE', #84, .T. ) ;
#243 = AXIS2_PLACEMENT_3D ( 'NONE', #224, #53, #192 ) ;
#244 = FACE_OUTER_BOUND ( 'NONE', #111, .T. ) ;
#245 = CARTESIAN_POINT ( 'NONE',  ( 0.000000000000000000, 0.000000000000000000, 6.500000000000000000 ) ) ;
#246 = CARTESIAN_POINT ( 'NONE',  ( 0.000000000000000000, 0.000000000000000000, 6.500000000000000000 ) ) ;
#247 = DIRECTION ( 'NONE',  ( -1.000000000000000000, 0.000000000000000000, 0.000000000000000000 ) ) ;
#248 = LINE ( 'NONE', #144, #17 ) ;
#249 = VECTOR ( 'NONE', #121, 1000.000000000000000 ) ;
#250 = APPROVAL_DATE_TIME ( #165, #41 ) ;
#251 = ORIENTED_EDGE ( 'NONE', *, *, #143, .F. ) ;
#252 = APPROVAL ( #135, 'NEURÈENÝ' ) ;
#253 = CARTESIAN_POINT ( 'NONE',  ( 0.000000000000000000, 0.000000000000000000, 0.000000000000000000 ) ) ;
#254 = CARTESIAN_POINT ( 'NONE',  ( 0.000000000000000000, 0.000000000000000000, 6.500000000000000000 ) ) ;
#255 = APPROVAL_STATUS ( 'not_yet_approved' ) ;
ENDSEC;
END-ISO-10303-21;
