ISO-10303-21;
HEADER;
FILE_DESCRIPTION (( 'STEP AP203' ),
    '1' );
FILE_NAME ('b305.STEP',
    '2023-02-13T14:19:50',
    ( '' ),
    ( '' ),
    'SwSTEP 2.0',
    'SolidWorks 2019',
    '' );
FILE_SCHEMA (( 'CONFIG_CONTROL_DESIGN' ));
ENDSEC;

DATA;
#1 = APPROVAL_ROLE ( '' ) ;
#2 = DIRECTION ( 'NONE',  ( -1.000000000000000000, 0.000000000000000000, 0.000000000000000000 ) ) ;
#3 = CARTESIAN_POINT ( 'NONE',  ( 0.000000000000000000, 0.000000000000000000, 0.000000000000000000 ) ) ;
#4 = DIRECTION ( 'NONE',  ( -0.000000000000000000, -0.000000000000000000, -1.000000000000000000 ) ) ;
#5 = DIRECTION ( 'NONE',  ( -1.000000000000000000, 0.000000000000000000, 0.000000000000000000 ) ) ;
#6 = FACE_OUTER_BOUND ( 'NONE', #165, .T. ) ;
#7 = CARTESIAN_POINT ( 'NONE',  ( 0.000000000000000000, 0.000000000000000000, 6.500000000000000000 ) ) ;
#8 = APPROVAL_PERSON_ORGANIZATION ( #246, #254, #1 ) ;
#9 = DIRECTION ( 'NONE',  ( 0.000000000000000000, 0.000000000000000000, 1.000000000000000000 ) ) ;
#10 = DATE_TIME_ROLE ( 'classification_date' ) ;
#11 = CC_DESIGN_SECURITY_CLASSIFICATION ( #121, ( #177 ) ) ;
#12 = PERSON_AND_ORGANIZATION_ROLE ( 'creator' ) ;
#13 = CYLINDRICAL_SURFACE ( 'NONE', #189, 7.000000000000000000 ) ;
#14 = CARTESIAN_POINT ( 'NONE',  ( -7.000000000000000000, 0.000000000000000000, 6.500000000000000000 ) ) ;
#15 = PERSON_AND_ORGANIZATION ( #108, #91 ) ;
#16 = ADVANCED_FACE ( 'NONE', ( #226 ), #13, .T. ) ;
#17 =( NAMED_UNIT ( * ) SI_UNIT ( $, .STERADIAN. ) SOLID_ANGLE_UNIT ( ) );
#18 = CARTESIAN_POINT ( 'NONE',  ( 0.000000000000000000, 0.000000000000000000, 6.500000000000000000 ) ) ;
#19 = FACE_OUTER_BOUND ( 'NONE', #221, .T. ) ;
#20 = DIRECTION ( 'NONE',  ( 1.000000000000000000, 0.000000000000000000, 0.000000000000000000 ) ) ;
#21 = AXIS2_PLACEMENT_3D ( 'NONE', #138, #214, #37 ) ;
#22 = LOCAL_TIME ( 15, 19, 50.00000000000000000, #109 ) ;
#23 = LINE ( 'NONE', #40, #200 ) ;
#24 = DIRECTION ( 'NONE',  ( -0.000000000000000000, -0.000000000000000000, -1.000000000000000000 ) ) ;
#25 = AXIS2_PLACEMENT_3D ( 'NONE', #3, #9, #74 ) ;
#26 = ORIENTED_EDGE ( 'NONE', *, *, #166, .T. ) ;
#27 = PERSON_AND_ORGANIZATION ( #108, #91 ) ;
#28 = ORIENTED_EDGE ( 'NONE', *, *, #179, .F. ) ;
#29 = CIRCLE ( 'NONE', #137, 7.000000000000000000 ) ;
#30 = PRODUCT_RELATED_PRODUCT_CATEGORY ( 'detail', '', ( #84 ) ) ;
#31 = DATE_AND_TIME ( #186, #236 ) ;
#32 = ORIENTED_EDGE ( 'NONE', *, *, #212, .T. ) ;
#33 = CARTESIAN_POINT ( 'NONE',  ( 4.000000000000000000, 4.898587196589412829E-16, 160.0000000000000000 ) ) ;
#34 =( NAMED_UNIT ( * ) PLANE_ANGLE_UNIT ( ) SI_UNIT ( $, .RADIAN. ) );
#35 = CARTESIAN_POINT ( 'NONE',  ( 0.000000000000000000, 0.000000000000000000, 160.0000000000000000 ) ) ;
#36 = DIRECTION ( 'NONE',  ( 1.000000000000000000, 0.000000000000000000, 0.000000000000000000 ) ) ;
#37 = DIRECTION ( 'NONE',  ( -1.000000000000000000, 0.000000000000000000, 0.000000000000000000 ) ) ;
#38 = ADVANCED_FACE ( 'NONE', ( #6 ), #97, .T. ) ;
#39 = CARTESIAN_POINT ( 'NONE',  ( 0.000000000000000000, 0.000000000000000000, 0.000000000000000000 ) ) ;
#40 = CARTESIAN_POINT ( 'NONE',  ( 7.000000000000000000, 8.572527594031471218E-16, 6.500000000000000000 ) ) ;
#41 = ORIENTED_EDGE ( 'NONE', *, *, #222, .F. ) ;
#42 = AXIS2_PLACEMENT_3D ( 'NONE', #136, #234, #140 ) ;
#43 = AXIS2_PLACEMENT_3D ( 'NONE', #98, #4, #155 ) ;
#44 = ORIENTED_EDGE ( 'NONE', *, *, #104, .T. ) ;
#45 = VERTEX_POINT ( 'NONE', #213 ) ;
#46 = CC_DESIGN_APPROVAL ( #131, ( #177 ) ) ;
#47 = APPROVAL_STATUS ( 'not_yet_approved' ) ;
#48 = DATE_AND_TIME ( #129, #117 ) ;
#49 = ORIENTED_EDGE ( 'NONE', *, *, #104, .F. ) ;
#50 = CC_DESIGN_PERSON_AND_ORGANIZATION_ASSIGNMENT ( #190, #12, ( #177 ) ) ;
#51 = APPROVAL_DATE_TIME ( #31, #254 ) ;
#52 = CARTESIAN_POINT ( 'NONE',  ( 7.000000000000000000, 8.572527594031471218E-16, 6.500000000000000000 ) ) ;
#53 = PERSON_AND_ORGANIZATION ( #108, #91 ) ;
#54 = CARTESIAN_POINT ( 'NONE',  ( -4.000000000000000000, 0.000000000000000000, 6.500000000000000000 ) ) ;
#55 = CYLINDRICAL_SURFACE ( 'NONE', #21, 4.000000000000000000 ) ;
#56 = CC_DESIGN_APPROVAL ( #112, ( #121 ) ) ;
#57 = CARTESIAN_POINT ( 'NONE',  ( 0.000000000000000000, 0.000000000000000000, 6.500000000000000000 ) ) ;
#58 = LINE ( 'NONE', #92, #156 ) ;
#59 = AXIS2_PLACEMENT_3D ( 'NONE', #35, #232, #114 ) ;
#60 = LINE ( 'NONE', #244, #64 ) ;
#61 = AXIS2_PLACEMENT_3D ( 'NONE', #113, #115, #36 ) ;
#62 = AXIS2_PLACEMENT_3D ( 'NONE', #224, #253, #172 ) ;
#63 = CARTESIAN_POINT ( 'NONE',  ( 0.000000000000000000, 0.000000000000000000, 160.0000000000000000 ) ) ;
#64 = VECTOR ( 'NONE', #24, 1000.000000000000000 ) ;
#65 = COORDINATED_UNIVERSAL_TIME_OFFSET ( 1, 0, .AHEAD. ) ;
#66 = DATE_TIME_ROLE ( 'creation_date' ) ;
#67 = VERTEX_POINT ( 'NONE', #54 ) ;
#68 = EDGE_CURVE ( 'NONE', #242, #45, #180, .T. ) ;
#69 = ORIENTED_EDGE ( 'NONE', *, *, #225, .T. ) ;
#70 = DIRECTION ( 'NONE',  ( 0.000000000000000000, 0.000000000000000000, 1.000000000000000000 ) ) ;
#71 = CARTESIAN_POINT ( 'NONE',  ( 7.000000000000000000, 8.572527594031471218E-16, 0.000000000000000000 ) ) ;
#72 = MECHANICAL_CONTEXT ( 'NONE', #153, 'mechanical' ) ;
#73 = CC_DESIGN_DATE_AND_TIME_ASSIGNMENT ( #157, #66, ( #239 ) ) ;
#74 = DIRECTION ( 'NONE',  ( 1.000000000000000000, 0.000000000000000000, 0.000000000000000000 ) ) ;
#75 =( LENGTH_UNIT ( ) NAMED_UNIT ( * ) SI_UNIT ( .MILLI., .METRE. ) );
#76 = PLANE ( 'NONE',  #143 ) ;
#77 = DIRECTION ( 'NONE',  ( 0.000000000000000000, 0.000000000000000000, 1.000000000000000000 ) ) ;
#78 = CC_DESIGN_DATE_AND_TIME_ASSIGNMENT ( #125, #10, ( #121 ) ) ;
#79 = EDGE_LOOP ( 'NONE', ( #32, #105 ) ) ;
#80 = CARTESIAN_POINT ( 'NONE',  ( -7.000000000000000000, 0.000000000000000000, 6.500000000000000000 ) ) ;
#81 = CC_DESIGN_PERSON_AND_ORGANIZATION_ASSIGNMENT ( #90, #168, ( #177 ) ) ;
#82 = PLANE ( 'NONE',  #132 ) ;
#83 = CARTESIAN_POINT ( 'NONE',  ( -7.000000000000000000, 0.000000000000000000, 0.000000000000000000 ) ) ;
#84 = PRODUCT ( 'b305', 'b305', '', ( #72 ) ) ;
#85 = ORIENTED_EDGE ( 'NONE', *, *, #201, .T. ) ;
#86 = LOCAL_TIME ( 15, 19, 50.00000000000000000, #65 ) ;
#87 = ORIENTED_EDGE ( 'NONE', *, *, #238, .T. ) ;
#88 = DATE_AND_TIME ( #230, #22 ) ;
#89 = AXIS2_PLACEMENT_3D ( 'NONE', #126, #70, #228 ) ;
#90 = PERSON_AND_ORGANIZATION ( #108, #91 ) ;
#91 = ORGANIZATION ( 'NEURÈENÝ', 'NEURÈENÝ', '' ) ;
#92 = CARTESIAN_POINT ( 'NONE',  ( -4.000000000000000000, 0.000000000000000000, 160.0000000000000000 ) ) ;
#93 = APPROVAL_ROLE ( '' ) ;
#94 = APPROVAL_DATE_TIME ( #48, #112 ) ;
#95 = AXIS2_PLACEMENT_3D ( 'NONE', #57, #139, #20 ) ;
#96 = DIRECTION ( 'NONE',  ( 0.000000000000000000, 0.000000000000000000, 1.000000000000000000 ) ) ;
#97 = CYLINDRICAL_SURFACE ( 'NONE', #142, 7.000000000000000000 ) ;
#98 = CARTESIAN_POINT ( 'NONE',  ( 0.000000000000000000, 0.000000000000000000, 160.0000000000000000 ) ) ;
#99 = LOCAL_TIME ( 15, 19, 50.00000000000000000, #103 ) ;
#100 = EDGE_CURVE ( 'NONE', #251, #133, #29, .T. ) ;
#101 = CALENDAR_DATE ( 2023, 13, 2 ) ;
#102 = ORIENTED_EDGE ( 'NONE', *, *, #68, .F. ) ;
#103 = COORDINATED_UNIVERSAL_TIME_OFFSET ( 1, 0, .AHEAD. ) ;
#104 = EDGE_CURVE ( 'NONE', #133, #251, #247, .T. ) ;
#105 = ORIENTED_EDGE ( 'NONE', *, *, #68, .T. ) ;
#106 = VECTOR ( 'NONE', #231, 1000.000000000000000 ) ;
#107 = APPLICATION_CONTEXT ( 'configuration controlled 3d designs of mechanical parts and assemblies' ) ;
#108 = PERSON ( 'NEURÈENÝ', 'NEURÈENÝ', 'NEURÈENÝ', ('NEURÈENÝ'), ('NEURÈENÝ'), ('NEURÈENÝ') ) ;
#109 = COORDINATED_UNIVERSAL_TIME_OFFSET ( 1, 0, .AHEAD. ) ;
#110 = ORIENTED_EDGE ( 'NONE', *, *, #179, .T. ) ;
#111 = EDGE_LOOP ( 'NONE', ( #44, #192 ) ) ;
#112 = APPROVAL ( #220, 'NEURÈENÝ' ) ;
#113 = CARTESIAN_POINT ( 'NONE',  ( 0.000000000000000000, 0.000000000000000000, 160.0000000000000000 ) ) ;
#114 = DIRECTION ( 'NONE',  ( 1.000000000000000000, 0.000000000000000000, 0.000000000000000000 ) ) ;
#115 = DIRECTION ( 'NONE',  ( 0.000000000000000000, 0.000000000000000000, 1.000000000000000000 ) ) ;
#116 = DIRECTION ( 'NONE',  ( -0.000000000000000000, -0.000000000000000000, -1.000000000000000000 ) ) ;
#117 = LOCAL_TIME ( 15, 19, 50.00000000000000000, #167 ) ;
#118 = FACE_OUTER_BOUND ( 'NONE', #79, .T. ) ;
#119 = EDGE_CURVE ( 'NONE', #241, #152, #240, .T. ) ;
#120 = CIRCLE ( 'NONE', #61, 4.000000000000000000 ) ;
#121 = SECURITY_CLASSIFICATION ( '', '', #243 ) ;
#122 = EDGE_LOOP ( 'NONE', ( #219, #110, #169, #182 ) ) ;
#123 = EDGE_LOOP ( 'NONE', ( #185, #184 ) ) ;
#124 = CIRCLE ( 'NONE', #161, 7.000000000000000000 ) ;
#125 = DATE_AND_TIME ( #101, #99 ) ;
#126 = CARTESIAN_POINT ( 'NONE',  ( 0.000000000000000000, 0.000000000000000000, 0.000000000000000000 ) ) ;
#127 = CC_DESIGN_PERSON_AND_ORGANIZATION_ASSIGNMENT ( #193, #151, ( #239 ) ) ;
#128 = CALENDAR_DATE ( 2023, 13, 2 ) ;
#129 = CALENDAR_DATE ( 2023, 13, 2 ) ;
#130 = ORIENTED_EDGE ( 'NONE', *, *, #164, .T. ) ;
#131 = APPROVAL ( #150, 'NEURÈENÝ' ) ;
#132 = AXIS2_PLACEMENT_3D ( 'NONE', #63, #147, #196 ) ;
#133 = VERTEX_POINT ( 'NONE', #80 ) ;
#134 = ADVANCED_BREP_SHAPE_REPRESENTATION ( 'b305', ( #252, #62 ), #202 ) ;
#135 = CARTESIAN_POINT ( 'NONE',  ( 0.000000000000000000, 0.000000000000000000, 6.500000000000000000 ) ) ;
#136 = CARTESIAN_POINT ( 'NONE',  ( 0.000000000000000000, 0.000000000000000000, 6.500000000000000000 ) ) ;
#137 = AXIS2_PLACEMENT_3D ( 'NONE', #135, #96, #237 ) ;
#138 = CARTESIAN_POINT ( 'NONE',  ( 0.000000000000000000, 0.000000000000000000, 160.0000000000000000 ) ) ;
#139 = DIRECTION ( 'NONE',  ( 0.000000000000000000, 0.000000000000000000, 1.000000000000000000 ) ) ;
#140 = DIRECTION ( 'NONE',  ( 1.000000000000000000, 0.000000000000000000, 0.000000000000000000 ) ) ;
#141 = DIRECTION ( 'NONE',  ( -0.000000000000000000, -0.000000000000000000, -1.000000000000000000 ) ) ;
#142 = AXIS2_PLACEMENT_3D ( 'NONE', #18, #175, #2 ) ;
#143 = AXIS2_PLACEMENT_3D ( 'NONE', #7, #77, #158 ) ;
#144 = CC_DESIGN_APPROVAL ( #254, ( #239 ) ) ;
#145 = ORIENTED_EDGE ( 'NONE', *, *, #166, .F. ) ;
#146 = PERSON_AND_ORGANIZATION ( #108, #91 ) ;
#147 = DIRECTION ( 'NONE',  ( 0.000000000000000000, 0.000000000000000000, 1.000000000000000000 ) ) ;
#148 = EDGE_LOOP ( 'NONE', ( #145, #245, #163, #87 ) ) ;
#149 = PLANE ( 'NONE',  #89 ) ;
#150 = APPROVAL_STATUS ( 'not_yet_approved' ) ;
#151 = PERSON_AND_ORGANIZATION_ROLE ( 'creator' ) ;
#152 = VERTEX_POINT ( 'NONE', #83 ) ;
#153 = APPLICATION_CONTEXT ( 'configuration controlled 3d designs of mechanical parts and assemblies' ) ;
#154 = ORIENTED_EDGE ( 'NONE', *, *, #164, .F. ) ;
#155 = DIRECTION ( 'NONE',  ( -1.000000000000000000, 0.000000000000000000, 0.000000000000000000 ) ) ;
#156 = VECTOR ( 'NONE', #174, 1000.000000000000000 ) ;
#157 = DATE_AND_TIME ( #128, #86 ) ;
#158 = DIRECTION ( 'NONE',  ( 1.000000000000000000, 0.000000000000000000, -0.000000000000000000 ) ) ;
#159 = CARTESIAN_POINT ( 'NONE',  ( 0.000000000000000000, 0.000000000000000000, 6.500000000000000000 ) ) ;
#160 = CC_DESIGN_PERSON_AND_ORGANIZATION_ASSIGNMENT ( #53, #187, ( #84 ) ) ;
#161 = AXIS2_PLACEMENT_3D ( 'NONE', #39, #198, #203 ) ;
#162 = ORIENTED_EDGE ( 'NONE', *, *, #119, .F. ) ;
#163 = ORIENTED_EDGE ( 'NONE', *, *, #222, .T. ) ;
#164 = EDGE_CURVE ( 'NONE', #152, #241, #124, .T. ) ;
#165 = EDGE_LOOP ( 'NONE', ( #28, #49, #69, #130 ) ) ;
#166 = EDGE_CURVE ( 'NONE', #242, #205, #60, .T. ) ;
#167 = COORDINATED_UNIVERSAL_TIME_OFFSET ( 1, 0, .AHEAD. ) ;
#168 = PERSON_AND_ORGANIZATION_ROLE ( 'design_supplier' ) ;
#169 = ORIENTED_EDGE ( 'NONE', *, *, #119, .T. ) ;
#170 = DIRECTION ( 'NONE',  ( 0.000000000000000000, 0.000000000000000000, 1.000000000000000000 ) ) ;
#171 = ADVANCED_FACE ( 'NONE', ( #118 ), #82, .T. ) ;
#172 = DIRECTION ( 'NONE',  ( 1.000000000000000000, 0.000000000000000000, 0.000000000000000000 ) ) ;
#173 = SHAPE_DEFINITION_REPRESENTATION ( #197, #134 ) ;
#174 = DIRECTION ( 'NONE',  ( -0.000000000000000000, -0.000000000000000000, -1.000000000000000000 ) ) ;
#175 = DIRECTION ( 'NONE',  ( -0.000000000000000000, -0.000000000000000000, -1.000000000000000000 ) ) ;
#176 = FACE_OUTER_BOUND ( 'NONE', #111, .T. ) ;
#177 = PRODUCT_DEFINITION_FORMATION_WITH_SPECIFIED_SOURCE ( 'LIBOVOLNÝ', '', #84, .NOT_KNOWN. ) ;
#178 = CARTESIAN_POINT ( 'NONE',  ( 0.000000000000000000, 0.000000000000000000, 6.500000000000000000 ) ) ;
#179 = EDGE_CURVE ( 'NONE', #251, #241, #23, .T. ) ;
#180 = CIRCLE ( 'NONE', #59, 4.000000000000000000 ) ;
#181 = ADVANCED_FACE ( 'NONE', ( #217 ), #149, .F. ) ;
#182 = ORIENTED_EDGE ( 'NONE', *, *, #225, .F. ) ;
#183 = EDGE_LOOP ( 'NONE', ( #154, #162 ) ) ;
#184 = ORIENTED_EDGE ( 'NONE', *, *, #201, .F. ) ;
#185 = ORIENTED_EDGE ( 'NONE', *, *, #238, .F. ) ;
#186 = CALENDAR_DATE ( 2023, 13, 2 ) ;
#187 = PERSON_AND_ORGANIZATION_ROLE ( 'design_owner' ) ;
#188 = APPROVAL_ROLE ( '' ) ;
#189 = AXIS2_PLACEMENT_3D ( 'NONE', #178, #116, #5 ) ;
#190 = PERSON_AND_ORGANIZATION ( #108, #91 ) ;
#191 = ADVANCED_FACE ( 'NONE', ( #229, #176 ), #76, .T. ) ;
#192 = ORIENTED_EDGE ( 'NONE', *, *, #100, .T. ) ;
#193 = PERSON_AND_ORGANIZATION ( #108, #91 ) ;
#194 = APPROVAL_PERSON_ORGANIZATION ( #146, #112, #188 ) ;
#195 = CARTESIAN_POINT ( 'NONE',  ( 4.000000000000000000, 4.898587196589412829E-16, 6.500000000000000000 ) ) ;
#196 = DIRECTION ( 'NONE',  ( 1.000000000000000000, 0.000000000000000000, -0.000000000000000000 ) ) ;
#197 = PRODUCT_DEFINITION_SHAPE ( 'NONE', 'NONE',  #239 ) ;
#198 = DIRECTION ( 'NONE',  ( 0.000000000000000000, 0.000000000000000000, 1.000000000000000000 ) ) ;
#199 = PERSON_AND_ORGANIZATION_ROLE ( 'classification_officer' ) ;
#200 = VECTOR ( 'NONE', #141, 1000.000000000000000 ) ;
#201 = EDGE_CURVE ( 'NONE', #205, #67, #235, .T. ) ;
#202 =( GEOMETRIC_REPRESENTATION_CONTEXT ( 3 ) GLOBAL_UNCERTAINTY_ASSIGNED_CONTEXT ( ( #250 ) ) GLOBAL_UNIT_ASSIGNED_CONTEXT ( ( #75, #34, #17 ) ) REPRESENTATION_CONTEXT ( 'NONE', 'WORKASPACE' ) );
#203 = DIRECTION ( 'NONE',  ( 1.000000000000000000, 0.000000000000000000, 0.000000000000000000 ) ) ;
#204 = ADVANCED_FACE ( 'NONE', ( #211 ), #55, .T. ) ;
#205 = VERTEX_POINT ( 'NONE', #195 ) ;
#206 = APPROVAL_DATE_TIME ( #88, #131 ) ;
#207 = COORDINATED_UNIVERSAL_TIME_OFFSET ( 1, 0, .AHEAD. ) ;
#208 = DESIGN_CONTEXT ( 'detailed design', #107, 'design' ) ;
#209 = APPROVAL_PERSON_ORGANIZATION ( #15, #131, #93 ) ;
#210 = APPLICATION_PROTOCOL_DEFINITION ( 'international standard', 'config_control_design', 1994, #153 ) ;
#211 = FACE_OUTER_BOUND ( 'NONE', #148, .T. ) ;
#212 = EDGE_CURVE ( 'NONE', #45, #242, #120, .T. ) ;
#213 = CARTESIAN_POINT ( 'NONE',  ( -4.000000000000000000, 0.000000000000000000, 160.0000000000000000 ) ) ;
#214 = DIRECTION ( 'NONE',  ( -0.000000000000000000, -0.000000000000000000, -1.000000000000000000 ) ) ;
#215 = LINE ( 'NONE', #14, #106 ) ;
#216 = CC_DESIGN_PERSON_AND_ORGANIZATION_ASSIGNMENT ( #27, #199, ( #121 ) ) ;
#217 = FACE_OUTER_BOUND ( 'NONE', #183, .T. ) ;
#218 = CLOSED_SHELL ( 'NONE', ( #249, #16, #38, #191, #181, #204, #171 ) ) ;
#219 = ORIENTED_EDGE ( 'NONE', *, *, #100, .F. ) ;
#220 = APPROVAL_STATUS ( 'not_yet_approved' ) ;
#221 = EDGE_LOOP ( 'NONE', ( #102, #26, #85, #41 ) ) ;
#222 = EDGE_CURVE ( 'NONE', #45, #67, #58, .T. ) ;
#223 = AXIS2_PLACEMENT_3D ( 'NONE', #159, #170, #255 ) ;
#224 = CARTESIAN_POINT ( 'NONE',  ( 0.000000000000000000, 0.000000000000000000, 0.000000000000000000 ) ) ;
#225 = EDGE_CURVE ( 'NONE', #133, #152, #215, .T. ) ;
#226 = FACE_OUTER_BOUND ( 'NONE', #122, .T. ) ;
#227 = APPLICATION_PROTOCOL_DEFINITION ( 'international standard', 'config_control_design', 1994, #107 ) ;
#228 = DIRECTION ( 'NONE',  ( 1.000000000000000000, 0.000000000000000000, -0.000000000000000000 ) ) ;
#229 = FACE_BOUND ( 'NONE', #123, .T. ) ;
#230 = CALENDAR_DATE ( 2023, 13, 2 ) ;
#231 = DIRECTION ( 'NONE',  ( -0.000000000000000000, -0.000000000000000000, -1.000000000000000000 ) ) ;
#232 = DIRECTION ( 'NONE',  ( 0.000000000000000000, 0.000000000000000000, 1.000000000000000000 ) ) ;
#233 = CYLINDRICAL_SURFACE ( 'NONE', #43, 4.000000000000000000 ) ;
#234 = DIRECTION ( 'NONE',  ( 0.000000000000000000, 0.000000000000000000, 1.000000000000000000 ) ) ;
#235 = CIRCLE ( 'NONE', #42, 4.000000000000000000 ) ;
#236 = LOCAL_TIME ( 15, 19, 50.00000000000000000, #207 ) ;
#237 = DIRECTION ( 'NONE',  ( 1.000000000000000000, 0.000000000000000000, 0.000000000000000000 ) ) ;
#238 = EDGE_CURVE ( 'NONE', #67, #205, #248, .T. ) ;
#239 = PRODUCT_DEFINITION ( 'NEZNÁMÝ', '', #177, #208 ) ;
#240 = CIRCLE ( 'NONE', #25, 7.000000000000000000 ) ;
#241 = VERTEX_POINT ( 'NONE', #71 ) ;
#242 = VERTEX_POINT ( 'NONE', #33 ) ;
#243 = SECURITY_CLASSIFICATION_LEVEL ( 'unclassified' ) ;
#244 = CARTESIAN_POINT ( 'NONE',  ( 4.000000000000000000, 4.898587196589412829E-16, 160.0000000000000000 ) ) ;
#245 = ORIENTED_EDGE ( 'NONE', *, *, #212, .F. ) ;
#246 = PERSON_AND_ORGANIZATION ( #108, #91 ) ;
#247 = CIRCLE ( 'NONE', #95, 7.000000000000000000 ) ;
#248 = CIRCLE ( 'NONE', #223, 4.000000000000000000 ) ;
#249 = ADVANCED_FACE ( 'NONE', ( #19 ), #233, .T. ) ;
#250 = UNCERTAINTY_MEASURE_WITH_UNIT (LENGTH_MEASURE( 1.000000000000000082E-05 ), #75, 'distance_accuracy_value', 'NONE');
#251 = VERTEX_POINT ( 'NONE', #52 ) ;
#252 = MANIFOLD_SOLID_BREP ( 'Pøidat vysunutím3', #218 ) ;
#253 = DIRECTION ( 'NONE',  ( 0.000000000000000000, 0.000000000000000000, 1.000000000000000000 ) ) ;
#254 = APPROVAL ( #47, 'NEURÈENÝ' ) ;
#255 = DIRECTION ( 'NONE',  ( 1.000000000000000000, 0.000000000000000000, 0.000000000000000000 ) ) ;
ENDSEC;
END-ISO-10303-21;
