ISO-10303-21;
HEADER;
FILE_DESCRIPTION (( 'STEP AP203' ),
    '1' );
FILE_NAME ('9f11.STEP',
    '2023-02-13T13:06:07',
    ( '' ),
    ( '' ),
    'SwSTEP 2.0',
    'SolidWorks 2019',
    '' );
FILE_SCHEMA (( 'CONFIG_CONTROL_DESIGN' ));
ENDSEC;

DATA;
#1 = EDGE_CURVE ( 'NONE', #250, #152, #71, .T. ) ;
#2 = CARTESIAN_POINT ( 'NONE',  ( 0.000000000000000000, 0.000000000000000000, 400.0000000000000000 ) ) ;
#3 = AXIS2_PLACEMENT_3D ( 'NONE', #234, #255, #33 ) ;
#4 = APPROVAL_PERSON_ORGANIZATION ( #122, #227, #61 ) ;
#5 = DATE_TIME_ROLE ( 'classification_date' ) ;
#6 = COORDINATED_UNIVERSAL_TIME_OFFSET ( 1, 0, .AHEAD. ) ;
#7 = PRODUCT_DEFINITION_FORMATION_WITH_SPECIFIED_SOURCE ( 'LIBOVOLNÝ', '', #166, .NOT_KNOWN. ) ;
#8 = PERSON_AND_ORGANIZATION ( #183, #17 ) ;
#9 = APPROVAL ( #164, 'NEURÈENÝ' ) ;
#10 = CARTESIAN_POINT ( 'NONE',  ( 0.000000000000000000, 0.000000000000000000, 400.0000000000000000 ) ) ;
#11 = ORIENTED_EDGE ( 'NONE', *, *, #168, .T. ) ;
#12 = COORDINATED_UNIVERSAL_TIME_OFFSET ( 1, 0, .AHEAD. ) ;
#13 = ORIENTED_EDGE ( 'NONE', *, *, #104, .T. ) ;
#14 = EDGE_LOOP ( 'NONE', ( #132, #173 ) ) ;
#15 = EDGE_CURVE ( 'NONE', #238, #152, #211, .T. ) ;
#16 = CARTESIAN_POINT ( 'NONE',  ( 0.000000000000000000, 0.000000000000000000, 6.500000000000000000 ) ) ;
#17 = ORGANIZATION ( 'NEURÈENÝ', 'NEURÈENÝ', '' ) ;
#18 = CYLINDRICAL_SURFACE ( 'NONE', #147, 5.100000000000001421 ) ;
#19 = DIRECTION ( 'NONE',  ( 1.000000000000000000, 0.000000000000000000, 0.000000000000000000 ) ) ;
#20 = CYLINDRICAL_SURFACE ( 'NONE', #3, 8.000000000000000000 ) ;
#21 = AXIS2_PLACEMENT_3D ( 'NONE', #95, #215, #176 ) ;
#22 = CALENDAR_DATE ( 2023, 13, 2 ) ;
#23 = PERSON_AND_ORGANIZATION_ROLE ( 'design_supplier' ) ;
#24 = CARTESIAN_POINT ( 'NONE',  ( 0.000000000000000000, 0.000000000000000000, 6.500000000000000000 ) ) ;
#25 = APPROVAL_STATUS ( 'not_yet_approved' ) ;
#26 = CC_DESIGN_APPROVAL ( #191, ( #7 ) ) ;
#27 = PERSON_AND_ORGANIZATION_ROLE ( 'classification_officer' ) ;
#28 = ORIENTED_EDGE ( 'NONE', *, *, #75, .T. ) ;
#29 = CIRCLE ( 'NONE', #150, 8.000000000000000000 ) ;
#30 = CARTESIAN_POINT ( 'NONE',  ( -5.100000000000001421, 0.000000000000000000, 400.0000000000000000 ) ) ;
#31 = ORIENTED_EDGE ( 'NONE', *, *, #45, .F. ) ;
#32 = CARTESIAN_POINT ( 'NONE',  ( -5.100000000000001421, 0.000000000000000000, 400.0000000000000000 ) ) ;
#33 = DIRECTION ( 'NONE',  ( -1.000000000000000000, 0.000000000000000000, 0.000000000000000000 ) ) ;
#34 = DIRECTION ( 'NONE',  ( -0.000000000000000000, -0.000000000000000000, -1.000000000000000000 ) ) ;
#35 = APPROVAL_PERSON_ORGANIZATION ( #163, #9, #239 ) ;
#36 = FACE_OUTER_BOUND ( 'NONE', #89, .T. ) ;
#37 = CARTESIAN_POINT ( 'NONE',  ( 0.000000000000000000, 0.000000000000000000, 6.500000000000000000 ) ) ;
#38 = EDGE_CURVE ( 'NONE', #44, #169, #29, .T. ) ;
#39 = LOCAL_TIME ( 14, 6, 7.000000000000000000, #63 ) ;
#40 = DIRECTION ( 'NONE',  ( 1.000000000000000000, 0.000000000000000000, -0.000000000000000000 ) ) ;
#41 = ORIENTED_EDGE ( 'NONE', *, *, #38, .T. ) ;
#42 = CALENDAR_DATE ( 2023, 13, 2 ) ;
#43 = FACE_BOUND ( 'NONE', #87, .T. ) ;
#44 = VERTEX_POINT ( 'NONE', #249 ) ;
#45 = EDGE_CURVE ( 'NONE', #229, #238, #185, .T. ) ;
#46 = PERSON_AND_ORGANIZATION ( #183, #17 ) ;
#47 = ORIENTED_EDGE ( 'NONE', *, *, #1, .T. ) ;
#48 = ORIENTED_EDGE ( 'NONE', *, *, #237, .T. ) ;
#49 = VERTEX_POINT ( 'NONE', #157 ) ;
#50 = CC_DESIGN_DATE_AND_TIME_ASSIGNMENT ( #68, #5, ( #128 ) ) ;
#51 = APPLICATION_CONTEXT ( 'configuration controlled 3d designs of mechanical parts and assemblies' ) ;
#52 = ORIENTED_EDGE ( 'NONE', *, *, #168, .F. ) ;
#53 = LOCAL_TIME ( 14, 6, 7.000000000000000000, #245 ) ;
#54 = SHAPE_DEFINITION_REPRESENTATION ( #224, #225 ) ;
#55 = CYLINDRICAL_SURFACE ( 'NONE', #252, 8.000000000000000000 ) ;
#56 = ADVANCED_FACE ( 'NONE', ( #115 ), #20, .T. ) ;
#57 = DIRECTION ( 'NONE',  ( 0.000000000000000000, 0.000000000000000000, 1.000000000000000000 ) ) ;
#58 = PLANE ( 'NONE',  #141 ) ;
#59 = AXIS2_PLACEMENT_3D ( 'NONE', #16, #247, #174 ) ;
#60 = PLANE ( 'NONE',  #199 ) ;
#61 = APPROVAL_ROLE ( '' ) ;
#62 = CARTESIAN_POINT ( 'NONE',  ( 8.000000000000000000, 9.797174393178823685E-16, 6.500000000000000000 ) ) ;
#63 = COORDINATED_UNIVERSAL_TIME_OFFSET ( 1, 0, .AHEAD. ) ;
#64 = CIRCLE ( 'NONE', #197, 8.000000000000000000 ) ;
#65 = LINE ( 'NONE', #62, #98 ) ;
#66 = ADVANCED_FACE ( 'NONE', ( #118 ), #137, .T. ) ;
#67 = DATE_TIME_ROLE ( 'creation_date' ) ;
#68 = DATE_AND_TIME ( #42, #235 ) ;
#69 = ORIENTED_EDGE ( 'NONE', *, *, #214, .T. ) ;
#70 = CARTESIAN_POINT ( 'NONE',  ( 5.100000000000001421, 6.245698675651502811E-16, 400.0000000000000000 ) ) ;
#71 = CIRCLE ( 'NONE', #170, 5.100000000000001421 ) ;
#72 = APPROVAL_PERSON_ORGANIZATION ( #217, #191, #106 ) ;
#73 = ORIENTED_EDGE ( 'NONE', *, *, #15, .T. ) ;
#74 =( LENGTH_UNIT ( ) NAMED_UNIT ( * ) SI_UNIT ( .MILLI., .METRE. ) );
#75 = EDGE_CURVE ( 'NONE', #229, #250, #253, .T. ) ;
#76 = MECHANICAL_CONTEXT ( 'NONE', #233, 'mechanical' ) ;
#77 = CLOSED_SHELL ( 'NONE', ( #82, #92, #56, #112, #121, #66, #248 ) ) ;
#78 = DIRECTION ( 'NONE',  ( 0.000000000000000000, 0.000000000000000000, 1.000000000000000000 ) ) ;
#79 = DATE_AND_TIME ( #22, #53 ) ;
#80 = DATE_AND_TIME ( #223, #145 ) ;
#81 = AXIS2_PLACEMENT_3D ( 'NONE', #143, #99, #179 ) ;
#82 = ADVANCED_FACE ( 'NONE', ( #36 ), #18, .T. ) ;
#83 = CC_DESIGN_APPROVAL ( #227, ( #195 ) ) ;
#84 = APPROVAL_DATE_TIME ( #79, #227 ) ;
#85 = ORIENTED_EDGE ( 'NONE', *, *, #237, .F. ) ;
#86 = APPROVAL_DATE_TIME ( #80, #191 ) ;
#87 = EDGE_LOOP ( 'NONE', ( #213, #220 ) ) ;
#88 = DIRECTION ( 'NONE',  ( 0.000000000000000000, 0.000000000000000000, 1.000000000000000000 ) ) ;
#89 = EDGE_LOOP ( 'NONE', ( #31, #28, #47, #133 ) ) ;
#90 = CARTESIAN_POINT ( 'NONE',  ( 0.000000000000000000, 0.000000000000000000, 6.500000000000000000 ) ) ;
#91 = DIRECTION ( 'NONE',  ( 0.000000000000000000, 0.000000000000000000, 1.000000000000000000 ) ) ;
#92 = ADVANCED_FACE ( 'NONE', ( #236 ), #55, .T. ) ;
#93 = AXIS2_PLACEMENT_3D ( 'NONE', #131, #136, #153 ) ;
#94 = CARTESIAN_POINT ( 'NONE',  ( 0.000000000000000000, 0.000000000000000000, 400.0000000000000000 ) ) ;
#95 = CARTESIAN_POINT ( 'NONE',  ( 0.000000000000000000, 0.000000000000000000, 400.0000000000000000 ) ) ;
#96 = DIRECTION ( 'NONE',  ( -1.000000000000000000, 0.000000000000000000, 0.000000000000000000 ) ) ;
#97 = DIRECTION ( 'NONE',  ( -1.000000000000000000, 0.000000000000000000, 0.000000000000000000 ) ) ;
#98 = VECTOR ( 'NONE', #222, 1000.000000000000000 ) ;
#99 = DIRECTION ( 'NONE',  ( 0.000000000000000000, 0.000000000000000000, 1.000000000000000000 ) ) ;
#100 = VECTOR ( 'NONE', #138, 1000.000000000000000 ) ;
#101 = DATE_AND_TIME ( #149, #119 ) ;
#102 = DIRECTION ( 'NONE',  ( 0.000000000000000000, 0.000000000000000000, 1.000000000000000000 ) ) ;
#103 = DIRECTION ( 'NONE',  ( 1.000000000000000000, 0.000000000000000000, -0.000000000000000000 ) ) ;
#104 = EDGE_CURVE ( 'NONE', #169, #44, #64, .T. ) ;
#105 = ORIENTED_EDGE ( 'NONE', *, *, #75, .F. ) ;
#106 = APPROVAL_ROLE ( '' ) ;
#107 = EDGE_LOOP ( 'NONE', ( #187, #159, #13, #85 ) ) ;
#108 = VECTOR ( 'NONE', #34, 1000.000000000000000 ) ;
#109 = DIRECTION ( 'NONE',  ( 0.000000000000000000, 0.000000000000000000, 1.000000000000000000 ) ) ;
#110 = CARTESIAN_POINT ( 'NONE',  ( 0.000000000000000000, 0.000000000000000000, 0.000000000000000000 ) ) ;
#111 = VERTEX_POINT ( 'NONE', #120 ) ;
#112 = ADVANCED_FACE ( 'NONE', ( #43, #219 ), #58, .T. ) ;
#113 = CARTESIAN_POINT ( 'NONE',  ( 0.000000000000000000, 0.000000000000000000, 0.000000000000000000 ) ) ;
#114 = VECTOR ( 'NONE', #194, 1000.000000000000000 ) ;
#115 = FACE_OUTER_BOUND ( 'NONE', #190, .T. ) ;
#116 = CARTESIAN_POINT ( 'NONE',  ( 0.000000000000000000, 0.000000000000000000, 400.0000000000000000 ) ) ;
#117 = DIRECTION ( 'NONE',  ( -0.000000000000000000, -0.000000000000000000, -1.000000000000000000 ) ) ;
#118 = FACE_OUTER_BOUND ( 'NONE', #198, .T. ) ;
#119 = LOCAL_TIME ( 14, 6, 7.000000000000000000, #6 ) ;
#120 = CARTESIAN_POINT ( 'NONE',  ( -8.000000000000000000, 0.000000000000000000, 6.500000000000000000 ) ) ;
#121 = ADVANCED_FACE ( 'NONE', ( #161 ), #60, .F. ) ;
#122 = PERSON_AND_ORGANIZATION ( #183, #17 ) ;
#123 = UNCERTAINTY_MEASURE_WITH_UNIT (LENGTH_MEASURE( 1.000000000000000082E-05 ), #74, 'distance_accuracy_value', 'NONE');
#124 = PERSON_AND_ORGANIZATION_ROLE ( 'creator' ) ;
#125 = DATE_AND_TIME ( #221, #39 ) ;
#126 = CARTESIAN_POINT ( 'NONE',  ( -5.100000000000001421, 0.000000000000000000, 6.500000000000000000 ) ) ;
#127 = PERSON_AND_ORGANIZATION_ROLE ( 'creator' ) ;
#128 = SECURITY_CLASSIFICATION ( '', '', #206 ) ;
#129 =( GEOMETRIC_REPRESENTATION_CONTEXT ( 3 ) GLOBAL_UNCERTAINTY_ASSIGNED_CONTEXT ( ( #123 ) ) GLOBAL_UNIT_ASSIGNED_CONTEXT ( ( #74, #192, #134 ) ) REPRESENTATION_CONTEXT ( 'NONE', 'WORKASPACE' ) );
#130 = CC_DESIGN_SECURITY_CLASSIFICATION ( #128, ( #7 ) ) ;
#131 = CARTESIAN_POINT ( 'NONE',  ( 0.000000000000000000, 0.000000000000000000, 6.500000000000000000 ) ) ;
#132 = ORIENTED_EDGE ( 'NONE', *, *, #38, .F. ) ;
#133 = ORIENTED_EDGE ( 'NONE', *, *, #15, .F. ) ;
#134 =( NAMED_UNIT ( * ) SI_UNIT ( $, .STERADIAN. ) SOLID_ANGLE_UNIT ( ) );
#135 = EDGE_CURVE ( 'NONE', #49, #169, #65, .T. ) ;
#136 = DIRECTION ( 'NONE',  ( 0.000000000000000000, 0.000000000000000000, 1.000000000000000000 ) ) ;
#137 = CYLINDRICAL_SURFACE ( 'NONE', #21, 5.100000000000001421 ) ;
#138 = DIRECTION ( 'NONE',  ( -0.000000000000000000, -0.000000000000000000, -1.000000000000000000 ) ) ;
#139 = CARTESIAN_POINT ( 'NONE',  ( 5.100000000000001421, 6.245698675651502811E-16, 400.0000000000000000 ) ) ;
#140 = CC_DESIGN_PERSON_AND_ORGANIZATION_ASSIGNMENT ( #240, #27, ( #128 ) ) ;
#141 = AXIS2_PLACEMENT_3D ( 'NONE', #24, #202, #103 ) ;
#142 = CC_DESIGN_PERSON_AND_ORGANIZATION_ASSIGNMENT ( #46, #127, ( #7 ) ) ;
#143 = CARTESIAN_POINT ( 'NONE',  ( 0.000000000000000000, 0.000000000000000000, 6.500000000000000000 ) ) ;
#144 = AXIS2_PLACEMENT_3D ( 'NONE', #10, #57, #196 ) ;
#145 = LOCAL_TIME ( 14, 6, 7.000000000000000000, #167 ) ;
#146 = CC_DESIGN_PERSON_AND_ORGANIZATION_ASSIGNMENT ( #148, #23, ( #7 ) ) ;
#147 = AXIS2_PLACEMENT_3D ( 'NONE', #116, #177, #96 ) ;
#148 = PERSON_AND_ORGANIZATION ( #183, #17 ) ;
#149 = CALENDAR_DATE ( 2023, 13, 2 ) ;
#150 = AXIS2_PLACEMENT_3D ( 'NONE', #110, #91, #172 ) ;
#151 = DIRECTION ( 'NONE',  ( 0.000000000000000000, 0.000000000000000000, 1.000000000000000000 ) ) ;
#152 = VERTEX_POINT ( 'NONE', #126 ) ;
#153 = DIRECTION ( 'NONE',  ( 1.000000000000000000, 0.000000000000000000, 0.000000000000000000 ) ) ;
#154 = DIRECTION ( 'NONE',  ( 0.000000000000000000, 0.000000000000000000, 1.000000000000000000 ) ) ;
#155 = PLANE ( 'NONE',  #181 ) ;
#156 = AXIS2_PLACEMENT_3D ( 'NONE', #2, #151, #254 ) ;
#157 = CARTESIAN_POINT ( 'NONE',  ( 8.000000000000000000, 9.797174393178823685E-16, 6.500000000000000000 ) ) ;
#158 = EDGE_CURVE ( 'NONE', #49, #111, #165, .T. ) ;
#159 = ORIENTED_EDGE ( 'NONE', *, *, #135, .T. ) ;
#160 = CARTESIAN_POINT ( 'NONE',  ( 0.000000000000000000, 0.000000000000000000, 0.000000000000000000 ) ) ;
#161 = FACE_OUTER_BOUND ( 'NONE', #14, .T. ) ;
#162 = PRODUCT_RELATED_PRODUCT_CATEGORY ( 'detail', '', ( #166 ) ) ;
#163 = PERSON_AND_ORGANIZATION ( #183, #17 ) ;
#164 = APPROVAL_STATUS ( 'not_yet_approved' ) ;
#165 = CIRCLE ( 'NONE', #81, 8.000000000000000000 ) ;
#166 = PRODUCT ( '9f11', '9f11', '', ( #76 ) ) ;
#167 = COORDINATED_UNIVERSAL_TIME_OFFSET ( 1, 0, .AHEAD. ) ;
#168 = EDGE_CURVE ( 'NONE', #238, #229, #216, .T. ) ;
#169 = VERTEX_POINT ( 'NONE', #209 ) ;
#170 = AXIS2_PLACEMENT_3D ( 'NONE', #90, #154, #228 ) ;
#171 = ORIENTED_EDGE ( 'NONE', *, *, #214, .F. ) ;
#172 = DIRECTION ( 'NONE',  ( 1.000000000000000000, 0.000000000000000000, 0.000000000000000000 ) ) ;
#173 = ORIENTED_EDGE ( 'NONE', *, *, #104, .F. ) ;
#174 = DIRECTION ( 'NONE',  ( 1.000000000000000000, 0.000000000000000000, 0.000000000000000000 ) ) ;
#175 = CIRCLE ( 'NONE', #59, 8.000000000000000000 ) ;
#176 = DIRECTION ( 'NONE',  ( -1.000000000000000000, 0.000000000000000000, 0.000000000000000000 ) ) ;
#177 = DIRECTION ( 'NONE',  ( -0.000000000000000000, -0.000000000000000000, -1.000000000000000000 ) ) ;
#178 = CARTESIAN_POINT ( 'NONE',  ( 0.000000000000000000, 0.000000000000000000, 0.000000000000000000 ) ) ;
#179 = DIRECTION ( 'NONE',  ( 1.000000000000000000, 0.000000000000000000, 0.000000000000000000 ) ) ;
#180 = CC_DESIGN_DATE_AND_TIME_ASSIGNMENT ( #101, #67, ( #195 ) ) ;
#181 = AXIS2_PLACEMENT_3D ( 'NONE', #94, #88, #232 ) ;
#182 = APPROVAL_STATUS ( 'not_yet_approved' ) ;
#183 = PERSON ( 'NEURÈENÝ', 'NEURÈENÝ', 'NEURÈENÝ', ('NEURÈENÝ'), ('NEURÈENÝ'), ('NEURÈENÝ') ) ;
#184 = PERSON_AND_ORGANIZATION ( #183, #17 ) ;
#185 = CIRCLE ( 'NONE', #144, 5.100000000000001421 ) ;
#186 = CC_DESIGN_PERSON_AND_ORGANIZATION_ASSIGNMENT ( #184, #204, ( #166 ) ) ;
#187 = ORIENTED_EDGE ( 'NONE', *, *, #158, .F. ) ;
#188 = ORIENTED_EDGE ( 'NONE', *, *, #135, .F. ) ;
#189 = EDGE_LOOP ( 'NONE', ( #69, #208 ) ) ;
#190 = EDGE_LOOP ( 'NONE', ( #188, #171, #48, #41 ) ) ;
#191 = APPROVAL ( #182, 'NEURÈENÝ' ) ;
#192 =( NAMED_UNIT ( * ) PLANE_ANGLE_UNIT ( ) SI_UNIT ( $, .RADIAN. ) );
#193 = CARTESIAN_POINT ( 'NONE',  ( -8.000000000000000000, 0.000000000000000000, 6.500000000000000000 ) ) ;
#194 = DIRECTION ( 'NONE',  ( -0.000000000000000000, -0.000000000000000000, -1.000000000000000000 ) ) ;
#195 = PRODUCT_DEFINITION ( 'NEZNÁMÝ', '', #7, #218 ) ;
#196 = DIRECTION ( 'NONE',  ( 1.000000000000000000, 0.000000000000000000, 0.000000000000000000 ) ) ;
#197 = AXIS2_PLACEMENT_3D ( 'NONE', #178, #78, #241 ) ;
#198 = EDGE_LOOP ( 'NONE', ( #105, #52, #73, #244 ) ) ;
#199 = AXIS2_PLACEMENT_3D ( 'NONE', #160, #102, #40 ) ;
#200 = AXIS2_PLACEMENT_3D ( 'NONE', #113, #109, #19 ) ;
#201 = ORIENTED_EDGE ( 'NONE', *, *, #45, .T. ) ;
#202 = DIRECTION ( 'NONE',  ( 0.000000000000000000, 0.000000000000000000, 1.000000000000000000 ) ) ;
#203 = APPROVAL_DATE_TIME ( #125, #9 ) ;
#204 = PERSON_AND_ORGANIZATION_ROLE ( 'design_owner' ) ;
#205 = CIRCLE ( 'NONE', #93, 5.100000000000001421 ) ;
#206 = SECURITY_CLASSIFICATION_LEVEL ( 'unclassified' ) ;
#207 = CC_DESIGN_PERSON_AND_ORGANIZATION_ASSIGNMENT ( #8, #124, ( #195 ) ) ;
#208 = ORIENTED_EDGE ( 'NONE', *, *, #158, .T. ) ;
#209 = CARTESIAN_POINT ( 'NONE',  ( 8.000000000000000000, 9.797174393178823685E-16, 0.000000000000000000 ) ) ;
#210 = APPLICATION_PROTOCOL_DEFINITION ( 'international standard', 'config_control_design', 1994, #233 ) ;
#211 = LINE ( 'NONE', #30, #114 ) ;
#212 = CARTESIAN_POINT ( 'NONE',  ( 5.100000000000001421, 6.245698675651502811E-16, 6.500000000000000000 ) ) ;
#213 = ORIENTED_EDGE ( 'NONE', *, *, #231, .F. ) ;
#214 = EDGE_CURVE ( 'NONE', #111, #49, #175, .T. ) ;
#215 = DIRECTION ( 'NONE',  ( -0.000000000000000000, -0.000000000000000000, -1.000000000000000000 ) ) ;
#216 = CIRCLE ( 'NONE', #156, 5.100000000000001421 ) ;
#217 = PERSON_AND_ORGANIZATION ( #183, #17 ) ;
#218 = DESIGN_CONTEXT ( 'detailed design', #51, 'design' ) ;
#219 = FACE_OUTER_BOUND ( 'NONE', #189, .T. ) ;
#220 = ORIENTED_EDGE ( 'NONE', *, *, #1, .F. ) ;
#221 = CALENDAR_DATE ( 2023, 13, 2 ) ;
#222 = DIRECTION ( 'NONE',  ( -0.000000000000000000, -0.000000000000000000, -1.000000000000000000 ) ) ;
#223 = CALENDAR_DATE ( 2023, 13, 2 ) ;
#224 = PRODUCT_DEFINITION_SHAPE ( 'NONE', 'NONE',  #195 ) ;
#225 = ADVANCED_BREP_SHAPE_REPRESENTATION ( '9f11', ( #226, #200 ), #129 ) ;
#226 = MANIFOLD_SOLID_BREP ( 'Pøidat vysunutím3', #77 ) ;
#227 = APPROVAL ( #25, 'NEURÈENÝ' ) ;
#228 = DIRECTION ( 'NONE',  ( 1.000000000000000000, 0.000000000000000000, 0.000000000000000000 ) ) ;
#229 = VERTEX_POINT ( 'NONE', #70 ) ;
#230 = LINE ( 'NONE', #193, #100 ) ;
#231 = EDGE_CURVE ( 'NONE', #152, #250, #205, .T. ) ;
#232 = DIRECTION ( 'NONE',  ( 1.000000000000000000, 0.000000000000000000, -0.000000000000000000 ) ) ;
#233 = APPLICATION_CONTEXT ( 'configuration controlled 3d designs of mechanical parts and assemblies' ) ;
#234 = CARTESIAN_POINT ( 'NONE',  ( 0.000000000000000000, 0.000000000000000000, 6.500000000000000000 ) ) ;
#235 = LOCAL_TIME ( 14, 6, 7.000000000000000000, #12 ) ;
#236 = FACE_OUTER_BOUND ( 'NONE', #107, .T. ) ;
#237 = EDGE_CURVE ( 'NONE', #111, #44, #230, .T. ) ;
#238 = VERTEX_POINT ( 'NONE', #32 ) ;
#239 = APPROVAL_ROLE ( '' ) ;
#240 = PERSON_AND_ORGANIZATION ( #183, #17 ) ;
#241 = DIRECTION ( 'NONE',  ( 1.000000000000000000, 0.000000000000000000, 0.000000000000000000 ) ) ;
#242 = CC_DESIGN_APPROVAL ( #9, ( #128 ) ) ;
#243 = APPLICATION_PROTOCOL_DEFINITION ( 'international standard', 'config_control_design', 1994, #51 ) ;
#244 = ORIENTED_EDGE ( 'NONE', *, *, #231, .T. ) ;
#245 = COORDINATED_UNIVERSAL_TIME_OFFSET ( 1, 0, .AHEAD. ) ;
#246 = EDGE_LOOP ( 'NONE', ( #11, #201 ) ) ;
#247 = DIRECTION ( 'NONE',  ( 0.000000000000000000, 0.000000000000000000, 1.000000000000000000 ) ) ;
#248 = ADVANCED_FACE ( 'NONE', ( #251 ), #155, .T. ) ;
#249 = CARTESIAN_POINT ( 'NONE',  ( -8.000000000000000000, 0.000000000000000000, 0.000000000000000000 ) ) ;
#250 = VERTEX_POINT ( 'NONE', #212 ) ;
#251 = FACE_OUTER_BOUND ( 'NONE', #246, .T. ) ;
#252 = AXIS2_PLACEMENT_3D ( 'NONE', #37, #117, #97 ) ;
#253 = LINE ( 'NONE', #139, #108 ) ;
#254 = DIRECTION ( 'NONE',  ( 1.000000000000000000, 0.000000000000000000, 0.000000000000000000 ) ) ;
#255 = DIRECTION ( 'NONE',  ( -0.000000000000000000, -0.000000000000000000, -1.000000000000000000 ) ) ;
ENDSEC;
END-ISO-10303-21;
