ISO-10303-21;
HEADER;
FILE_DESCRIPTION (( 'STEP AP203' ),
    '1' );
FILE_NAME ('7c9b.STEP',
    '2023-02-13T10:38:52',
    ( '' ),
    ( '' ),
    'SwSTEP 2.0',
    'SolidWorks 2019',
    '' );
FILE_SCHEMA (( 'CONFIG_CONTROL_DESIGN' ));
ENDSEC;

DATA;
#1 = DIRECTION ( 'NONE',  ( 0.000000000000000000, 0.000000000000000000, 1.000000000000000000 ) ) ;
#2 = APPROVAL ( #11, 'NEURÈENÝ' ) ;
#3 = CARTESIAN_POINT ( 'NONE',  ( 0.000000000000000000, 0.000000000000000000, 100.0000000000000000 ) ) ;
#4 =( LENGTH_UNIT ( ) NAMED_UNIT ( * ) SI_UNIT ( .MILLI., .METRE. ) );
#5 = CC_DESIGN_APPROVAL ( #160, ( #211 ) ) ;
#6 = APPROVAL_ROLE ( '' ) ;
#7 = PERSON_AND_ORGANIZATION ( #121, #196 ) ;
#8 = ADVANCED_FACE ( 'NONE', ( #112 ), #191, .T. ) ;
#9 = PERSON_AND_ORGANIZATION_ROLE ( 'creator' ) ;
#10 = SECURITY_CLASSIFICATION ( '', '', #122 ) ;
#11 = APPROVAL_STATUS ( 'not_yet_approved' ) ;
#12 = DATE_TIME_ROLE ( 'classification_date' ) ;
#13 = CARTESIAN_POINT ( 'NONE',  ( 0.000000000000000000, 0.000000000000000000, 100.0000000000000000 ) ) ;
#14 = AXIS2_PLACEMENT_3D ( 'NONE', #81, #201, #135 ) ;
#15 = DIRECTION ( 'NONE',  ( -0.000000000000000000, -0.000000000000000000, -1.000000000000000000 ) ) ;
#16 = CARTESIAN_POINT ( 'NONE',  ( 6.250000000000000000, 7.654042494670955634E-16, 7.000000000000000000 ) ) ;
#17 = VERTEX_POINT ( 'NONE', #16 ) ;
#18 = VERTEX_POINT ( 'NONE', #245 ) ;
#19 = CARTESIAN_POINT ( 'NONE',  ( 0.000000000000000000, 0.000000000000000000, 7.000000000000000000 ) ) ;
#20 = DIRECTION ( 'NONE',  ( 1.000000000000000000, 0.000000000000000000, 0.000000000000000000 ) ) ;
#21 = AXIS2_PLACEMENT_3D ( 'NONE', #94, #220, #20 ) ;
#22 = MANIFOLD_SOLID_BREP ( 'Pøidat vysunutím3', #30 ) ;
#23 = CC_DESIGN_DATE_AND_TIME_ASSIGNMENT ( #204, #203, ( #211 ) ) ;
#24 = DIRECTION ( 'NONE',  ( 0.000000000000000000, 0.000000000000000000, 1.000000000000000000 ) ) ;
#25 = AXIS2_PLACEMENT_3D ( 'NONE', #192, #130, #37 ) ;
#26 = APPROVAL_DATE_TIME ( #125, #155 ) ;
#27 = CALENDAR_DATE ( 2023, 13, 2 ) ;
#28 = PERSON_AND_ORGANIZATION_ROLE ( 'creator' ) ;
#29 = EDGE_CURVE ( 'NONE', #88, #144, #210, .T. ) ;
#30 = CLOSED_SHELL ( 'NONE', ( #202, #243, #8, #207, #40, #103, #46 ) ) ;
#31 = APPLICATION_PROTOCOL_DEFINITION ( 'international standard', 'config_control_design', 1994, #53 ) ;
#32 = ORIENTED_EDGE ( 'NONE', *, *, #169, .T. ) ;
#33 = CARTESIAN_POINT ( 'NONE',  ( 0.000000000000000000, 0.000000000000000000, 0.000000000000000000 ) ) ;
#34 = ORIENTED_EDGE ( 'NONE', *, *, #226, .T. ) ;
#35 = DESIGN_CONTEXT ( 'detailed design', #53, 'design' ) ;
#36 = EDGE_CURVE ( 'NONE', #250, #208, #246, .T. ) ;
#37 = DIRECTION ( 'NONE',  ( -1.000000000000000000, 0.000000000000000000, 0.000000000000000000 ) ) ;
#38 = DIRECTION ( 'NONE',  ( 0.000000000000000000, 0.000000000000000000, 1.000000000000000000 ) ) ;
#39 = CARTESIAN_POINT ( 'NONE',  ( -6.250000000000000000, 0.000000000000000000, 100.0000000000000000 ) ) ;
#40 = ADVANCED_FACE ( 'NONE', ( #190 ), #156, .F. ) ;
#41 = LOCAL_TIME ( 11, 38, 52.00000000000000000, #124 ) ;
#42 = DIRECTION ( 'NONE',  ( 0.000000000000000000, 0.000000000000000000, 1.000000000000000000 ) ) ;
#43 = DIRECTION ( 'NONE',  ( 0.000000000000000000, 0.000000000000000000, 1.000000000000000000 ) ) ;
#44 = CIRCLE ( 'NONE', #137, 6.250000000000000000 ) ;
#45 = DIRECTION ( 'NONE',  ( 0.000000000000000000, 0.000000000000000000, 1.000000000000000000 ) ) ;
#46 = ADVANCED_FACE ( 'NONE', ( #213 ), #151, .T. ) ;
#47 = PERSON_AND_ORGANIZATION_ROLE ( 'design_supplier' ) ;
#48 = AXIS2_PLACEMENT_3D ( 'NONE', #181, #1, #77 ) ;
#49 = APPROVAL_ROLE ( '' ) ;
#50 = ORIENTED_EDGE ( 'NONE', *, *, #247, .F. ) ;
#51 = CALENDAR_DATE ( 2023, 13, 2 ) ;
#52 = APPROVAL_STATUS ( 'not_yet_approved' ) ;
#53 = APPLICATION_CONTEXT ( 'configuration controlled 3d designs of mechanical parts and assemblies' ) ;
#54 = CARTESIAN_POINT ( 'NONE',  ( 0.000000000000000000, 0.000000000000000000, 0.000000000000000000 ) ) ;
#55 = ORIENTED_EDGE ( 'NONE', *, *, #182, .T. ) ;
#56 = ORIENTED_EDGE ( 'NONE', *, *, #80, .F. ) ;
#57 = DIRECTION ( 'NONE',  ( 1.000000000000000000, 0.000000000000000000, -0.000000000000000000 ) ) ;
#58 = DIRECTION ( 'NONE',  ( 1.000000000000000000, 0.000000000000000000, -0.000000000000000000 ) ) ;
#59 = AXIS2_PLACEMENT_3D ( 'NONE', #54, #38, #57 ) ;
#60 = VECTOR ( 'NONE', #15, 1000.000000000000000 ) ;
#61 = CYLINDRICAL_SURFACE ( 'NONE', #14, 9.000000000000000000 ) ;
#62 = CC_DESIGN_PERSON_AND_ORGANIZATION_ASSIGNMENT ( #186, #187, ( #10 ) ) ;
#63 =( NAMED_UNIT ( * ) PLANE_ANGLE_UNIT ( ) SI_UNIT ( $, .RADIAN. ) );
#64 = DIRECTION ( 'NONE',  ( 0.000000000000000000, 0.000000000000000000, 1.000000000000000000 ) ) ;
#65 = AXIS2_PLACEMENT_3D ( 'NONE', #19, #45, #157 ) ;
#66 = APPROVAL_STATUS ( 'not_yet_approved' ) ;
#67 = PERSON_AND_ORGANIZATION ( #121, #196 ) ;
#68 = CIRCLE ( 'NONE', #97, 9.000000000000000000 ) ;
#69 = EDGE_LOOP ( 'NONE', ( #76, #165, #194, #171 ) ) ;
#70 = APPROVAL_DATE_TIME ( #209, #2 ) ;
#71 = LOCAL_TIME ( 11, 38, 52.00000000000000000, #205 ) ;
#72 = ORIENTED_EDGE ( 'NONE', *, *, #169, .F. ) ;
#73 = ORIENTED_EDGE ( 'NONE', *, *, #29, .T. ) ;
#74 = LINE ( 'NONE', #152, #189 ) ;
#75 = EDGE_LOOP ( 'NONE', ( #106, #89, #173, #174 ) ) ;
#76 = ORIENTED_EDGE ( 'NONE', *, *, #199, .F. ) ;
#77 = DIRECTION ( 'NONE',  ( 1.000000000000000000, 0.000000000000000000, 0.000000000000000000 ) ) ;
#78 = AXIS2_PLACEMENT_3D ( 'NONE', #116, #100, #118 ) ;
#79 = FACE_OUTER_BOUND ( 'NONE', #150, .T. ) ;
#80 = EDGE_CURVE ( 'NONE', #208, #167, #244, .T. ) ;
#81 = CARTESIAN_POINT ( 'NONE',  ( 0.000000000000000000, 0.000000000000000000, 7.000000000000000000 ) ) ;
#82 = FACE_OUTER_BOUND ( 'NONE', #69, .T. ) ;
#83 = LOCAL_TIME ( 11, 38, 52.00000000000000000, #143 ) ;
#84 = DIRECTION ( 'NONE',  ( 1.000000000000000000, 0.000000000000000000, 0.000000000000000000 ) ) ;
#85 = AXIS2_PLACEMENT_3D ( 'NONE', #96, #24, #161 ) ;
#86 = CALENDAR_DATE ( 2023, 13, 2 ) ;
#87 = COORDINATED_UNIVERSAL_TIME_OFFSET ( 1, 0, .AHEAD. ) ;
#88 = VERTEX_POINT ( 'NONE', #39 ) ;
#89 = ORIENTED_EDGE ( 'NONE', *, *, #226, .F. ) ;
#90 = ORIENTED_EDGE ( 'NONE', *, *, #251, .F. ) ;
#91 = DIRECTION ( 'NONE',  ( -0.000000000000000000, -0.000000000000000000, -1.000000000000000000 ) ) ;
#92 = VECTOR ( 'NONE', #91, 1000.000000000000000 ) ;
#93 = ORIENTED_EDGE ( 'NONE', *, *, #182, .F. ) ;
#94 = CARTESIAN_POINT ( 'NONE',  ( 0.000000000000000000, 0.000000000000000000, 100.0000000000000000 ) ) ;
#95 = PRODUCT_RELATED_PRODUCT_CATEGORY ( 'detail', '', ( #236 ) ) ;
#96 = CARTESIAN_POINT ( 'NONE',  ( 0.000000000000000000, 0.000000000000000000, 0.000000000000000000 ) ) ;
#97 = AXIS2_PLACEMENT_3D ( 'NONE', #134, #43, #138 ) ;
#98 = CC_DESIGN_APPROVAL ( #155, ( #117 ) ) ;
#99 = CARTESIAN_POINT ( 'NONE',  ( 6.250000000000000000, 7.654042494670955634E-16, 100.0000000000000000 ) ) ;
#100 = DIRECTION ( 'NONE',  ( -0.000000000000000000, -0.000000000000000000, -1.000000000000000000 ) ) ;
#101 = AXIS2_PLACEMENT_3D ( 'NONE', #168, #145, #240 ) ;
#102 = DATE_AND_TIME ( #27, #71 ) ;
#103 = ADVANCED_FACE ( 'NONE', ( #107 ), #128, .T. ) ;
#104 = MECHANICAL_CONTEXT ( 'NONE', #237, 'mechanical' ) ;
#105 = PERSON_AND_ORGANIZATION ( #121, #196 ) ;
#106 = ORIENTED_EDGE ( 'NONE', *, *, #123, .F. ) ;
#107 = FACE_OUTER_BOUND ( 'NONE', #154, .T. ) ;
#108 = UNCERTAINTY_MEASURE_WITH_UNIT (LENGTH_MEASURE( 1.000000000000000082E-05 ), #4, 'distance_accuracy_value', 'NONE');
#109 = PRODUCT_DEFINITION_SHAPE ( 'NONE', 'NONE',  #211 ) ;
#110 = CARTESIAN_POINT ( 'NONE',  ( -6.250000000000000000, 0.000000000000000000, 100.0000000000000000 ) ) ;
#111 = CIRCLE ( 'NONE', #178, 6.250000000000000000 ) ;
#112 = FACE_OUTER_BOUND ( 'NONE', #75, .T. ) ;
#113 = CC_DESIGN_PERSON_AND_ORGANIZATION_ASSIGNMENT ( #105, #47, ( #117 ) ) ;
#114 = DIRECTION ( 'NONE',  ( -0.000000000000000000, -0.000000000000000000, -1.000000000000000000 ) ) ;
#115 = DIRECTION ( 'NONE',  ( -0.000000000000000000, -0.000000000000000000, -1.000000000000000000 ) ) ;
#116 = CARTESIAN_POINT ( 'NONE',  ( 0.000000000000000000, 0.000000000000000000, 100.0000000000000000 ) ) ;
#117 = PRODUCT_DEFINITION_FORMATION_WITH_SPECIFIED_SOURCE ( 'LIBOVOLNÝ', '', #236, .NOT_KNOWN. ) ;
#118 = DIRECTION ( 'NONE',  ( -1.000000000000000000, 0.000000000000000000, 0.000000000000000000 ) ) ;
#119 = CC_DESIGN_DATE_AND_TIME_ASSIGNMENT ( #102, #12, ( #10 ) ) ;
#120 = DIRECTION ( 'NONE',  ( 0.000000000000000000, 0.000000000000000000, 1.000000000000000000 ) ) ;
#121 = PERSON ( 'NEURÈENÝ', 'NEURÈENÝ', 'NEURÈENÝ', ('NEURÈENÝ'), ('NEURÈENÝ'), ('NEURÈENÝ') ) ;
#122 = SECURITY_CLASSIFICATION_LEVEL ( 'unclassified' ) ;
#123 = EDGE_CURVE ( 'NONE', #18, #167, #74, .T. ) ;
#124 = COORDINATED_UNIVERSAL_TIME_OFFSET ( 1, 0, .AHEAD. ) ;
#125 = DATE_AND_TIME ( #51, #217 ) ;
#126 = COORDINATED_UNIVERSAL_TIME_OFFSET ( 1, 0, .AHEAD. ) ;
#127 = CC_DESIGN_SECURITY_CLASSIFICATION ( #10, ( #117 ) ) ;
#128 = CYLINDRICAL_SURFACE ( 'NONE', #224, 6.250000000000000000 ) ;
#129 = ORIENTED_EDGE ( 'NONE', *, *, #228, .F. ) ;
#130 = DIRECTION ( 'NONE',  ( -0.000000000000000000, -0.000000000000000000, -1.000000000000000000 ) ) ;
#131 = DIRECTION ( 'NONE',  ( 0.000000000000000000, 0.000000000000000000, 1.000000000000000000 ) ) ;
#132 = CARTESIAN_POINT ( 'NONE',  ( -6.250000000000000000, 0.000000000000000000, 7.000000000000000000 ) ) ;
#133 = AXIS2_PLACEMENT_3D ( 'NONE', #33, #131, #172 ) ;
#134 = CARTESIAN_POINT ( 'NONE',  ( 0.000000000000000000, 0.000000000000000000, 7.000000000000000000 ) ) ;
#135 = DIRECTION ( 'NONE',  ( -1.000000000000000000, 0.000000000000000000, 0.000000000000000000 ) ) ;
#136 =( NAMED_UNIT ( * ) SI_UNIT ( $, .STERADIAN. ) SOLID_ANGLE_UNIT ( ) );
#137 = AXIS2_PLACEMENT_3D ( 'NONE', #177, #120, #158 ) ;
#138 = DIRECTION ( 'NONE',  ( 1.000000000000000000, 0.000000000000000000, 0.000000000000000000 ) ) ;
#139 = CALENDAR_DATE ( 2023, 13, 2 ) ;
#140 = APPROVAL_ROLE ( '' ) ;
#141 = AXIS2_PLACEMENT_3D ( 'NONE', #3, #64, #221 ) ;
#142 = APPROVAL_PERSON_ORGANIZATION ( #166, #2, #6 ) ;
#143 = COORDINATED_UNIVERSAL_TIME_OFFSET ( 1, 0, .AHEAD. ) ;
#144 = VERTEX_POINT ( 'NONE', #132 ) ;
#145 = DIRECTION ( 'NONE',  ( 0.000000000000000000, 0.000000000000000000, 1.000000000000000000 ) ) ;
#146 = EDGE_LOOP ( 'NONE', ( #34, #214 ) ) ;
#147 = SHAPE_DEFINITION_REPRESENTATION ( #109, #219 ) ;
#148 = CC_DESIGN_PERSON_AND_ORGANIZATION_ASSIGNMENT ( #7, #9, ( #211 ) ) ;
#149 = CIRCLE ( 'NONE', #21, 6.250000000000000000 ) ;
#150 = EDGE_LOOP ( 'NONE', ( #90, #32, #55, #212 ) ) ;
#151 = PLANE ( 'NONE',  #238 ) ;
#152 = CARTESIAN_POINT ( 'NONE',  ( 9.000000000000000000, 1.102182119232617714E-15, 7.000000000000000000 ) ) ;
#153 = LOCAL_TIME ( 11, 38, 52.00000000000000000, #87 ) ;
#154 = EDGE_LOOP ( 'NONE', ( #72, #176, #73, #229 ) ) ;
#155 = APPROVAL ( #52, 'NEURÈENÝ' ) ;
#156 = PLANE ( 'NONE',  #59 ) ;
#157 = DIRECTION ( 'NONE',  ( 1.000000000000000000, 0.000000000000000000, -0.000000000000000000 ) ) ;
#158 = DIRECTION ( 'NONE',  ( 1.000000000000000000, 0.000000000000000000, 0.000000000000000000 ) ) ;
#159 = CARTESIAN_POINT ( 'NONE',  ( 9.000000000000000000, 1.102182119232617714E-15, 0.000000000000000000 ) ) ;
#160 = APPROVAL ( #66, 'NEURÈENÝ' ) ;
#161 = DIRECTION ( 'NONE',  ( 1.000000000000000000, 0.000000000000000000, 0.000000000000000000 ) ) ;
#162 = CIRCLE ( 'NONE', #85, 9.000000000000000000 ) ;
#163 = CYLINDRICAL_SURFACE ( 'NONE', #78, 6.250000000000000000 ) ;
#164 = CC_DESIGN_PERSON_AND_ORGANIZATION_ASSIGNMENT ( #170, #28, ( #117 ) ) ;
#165 = ORIENTED_EDGE ( 'NONE', *, *, #123, .T. ) ;
#166 = PERSON_AND_ORGANIZATION ( #121, #196 ) ;
#167 = VERTEX_POINT ( 'NONE', #159 ) ;
#168 = CARTESIAN_POINT ( 'NONE',  ( 0.000000000000000000, 0.000000000000000000, 0.000000000000000000 ) ) ;
#169 = EDGE_CURVE ( 'NONE', #188, #17, #216, .T. ) ;
#170 = PERSON_AND_ORGANIZATION ( #121, #196 ) ;
#171 = ORIENTED_EDGE ( 'NONE', *, *, #36, .F. ) ;
#172 = DIRECTION ( 'NONE',  ( 1.000000000000000000, 0.000000000000000000, 0.000000000000000000 ) ) ;
#173 = ORIENTED_EDGE ( 'NONE', *, *, #36, .T. ) ;
#174 = ORIENTED_EDGE ( 'NONE', *, *, #80, .T. ) ;
#175 = APPROVAL_PERSON_ORGANIZATION ( #242, #155, #140 ) ;
#176 = ORIENTED_EDGE ( 'NONE', *, *, #193, .F. ) ;
#177 = CARTESIAN_POINT ( 'NONE',  ( 0.000000000000000000, 0.000000000000000000, 7.000000000000000000 ) ) ;
#178 = AXIS2_PLACEMENT_3D ( 'NONE', #197, #42, #84 ) ;
#179 = CC_DESIGN_PERSON_AND_ORGANIZATION_ASSIGNMENT ( #67, #225, ( #236 ) ) ;
#180 = FACE_OUTER_BOUND ( 'NONE', #146, .T. ) ;
#181 = CARTESIAN_POINT ( 'NONE',  ( 0.000000000000000000, 0.000000000000000000, 7.000000000000000000 ) ) ;
#182 = EDGE_CURVE ( 'NONE', #17, #144, #111, .T. ) ;
#183 = APPROVAL_DATE_TIME ( #206, #160 ) ;
#184 = PERSON_AND_ORGANIZATION ( #121, #196 ) ;
#185 = CC_DESIGN_APPROVAL ( #2, ( #10 ) ) ;
#186 = PERSON_AND_ORGANIZATION ( #121, #196 ) ;
#187 = PERSON_AND_ORGANIZATION_ROLE ( 'classification_officer' ) ;
#188 = VERTEX_POINT ( 'NONE', #235 ) ;
#189 = VECTOR ( 'NONE', #115, 1000.000000000000000 ) ;
#190 = FACE_OUTER_BOUND ( 'NONE', #249, .T. ) ;
#191 = CYLINDRICAL_SURFACE ( 'NONE', #25, 9.000000000000000000 ) ;
#192 = CARTESIAN_POINT ( 'NONE',  ( 0.000000000000000000, 0.000000000000000000, 7.000000000000000000 ) ) ;
#193 = EDGE_CURVE ( 'NONE', #88, #188, #253, .T. ) ;
#194 = ORIENTED_EDGE ( 'NONE', *, *, #247, .T. ) ;
#195 = APPROVAL_PERSON_ORGANIZATION ( #184, #160, #49 ) ;
#196 = ORGANIZATION ( 'NEURÈENÝ', 'NEURÈENÝ', '' ) ;
#197 = CARTESIAN_POINT ( 'NONE',  ( 0.000000000000000000, 0.000000000000000000, 7.000000000000000000 ) ) ;
#198 = FACE_BOUND ( 'NONE', #241, .T. ) ;
#199 = EDGE_CURVE ( 'NONE', #18, #250, #68, .T. ) ;
#200 = CARTESIAN_POINT ( 'NONE',  ( -9.000000000000000000, 0.000000000000000000, 7.000000000000000000 ) ) ;
#201 = DIRECTION ( 'NONE',  ( -0.000000000000000000, -0.000000000000000000, -1.000000000000000000 ) ) ;
#202 = ADVANCED_FACE ( 'NONE', ( #79 ), #163, .T. ) ;
#203 = DATE_TIME_ROLE ( 'creation_date' ) ;
#204 = DATE_AND_TIME ( #223, #41 ) ;
#205 = COORDINATED_UNIVERSAL_TIME_OFFSET ( 1, 0, .AHEAD. ) ;
#206 = DATE_AND_TIME ( #139, #83 ) ;
#207 = ADVANCED_FACE ( 'NONE', ( #198, #180 ), #222, .T. ) ;
#208 = VERTEX_POINT ( 'NONE', #218 ) ;
#209 = DATE_AND_TIME ( #86, #153 ) ;
#210 = LINE ( 'NONE', #110, #60 ) ;
#211 = PRODUCT_DEFINITION ( 'NEZNÁMÝ', '', #117, #35 ) ;
#212 = ORIENTED_EDGE ( 'NONE', *, *, #29, .F. ) ;
#213 = FACE_OUTER_BOUND ( 'NONE', #232, .T. ) ;
#214 = ORIENTED_EDGE ( 'NONE', *, *, #199, .T. ) ;
#215 = DIRECTION ( 'NONE',  ( 0.000000000000000000, 0.000000000000000000, 1.000000000000000000 ) ) ;
#216 = LINE ( 'NONE', #99, #231 ) ;
#217 = LOCAL_TIME ( 11, 38, 52.00000000000000000, #126 ) ;
#218 = CARTESIAN_POINT ( 'NONE',  ( -9.000000000000000000, 0.000000000000000000, 0.000000000000000000 ) ) ;
#219 = ADVANCED_BREP_SHAPE_REPRESENTATION ( '7c9b', ( #22, #101 ), #255 ) ;
#220 = DIRECTION ( 'NONE',  ( 0.000000000000000000, 0.000000000000000000, 1.000000000000000000 ) ) ;
#221 = DIRECTION ( 'NONE',  ( 1.000000000000000000, 0.000000000000000000, 0.000000000000000000 ) ) ;
#222 = PLANE ( 'NONE',  #65 ) ;
#223 = CALENDAR_DATE ( 2023, 13, 2 ) ;
#224 = AXIS2_PLACEMENT_3D ( 'NONE', #13, #114, #230 ) ;
#225 = PERSON_AND_ORGANIZATION_ROLE ( 'design_owner' ) ;
#226 = EDGE_CURVE ( 'NONE', #250, #18, #248, .T. ) ;
#227 = ORIENTED_EDGE ( 'NONE', *, *, #193, .T. ) ;
#228 = EDGE_CURVE ( 'NONE', #144, #17, #44, .T. ) ;
#229 = ORIENTED_EDGE ( 'NONE', *, *, #228, .T. ) ;
#230 = DIRECTION ( 'NONE',  ( -1.000000000000000000, 0.000000000000000000, 0.000000000000000000 ) ) ;
#231 = VECTOR ( 'NONE', #254, 1000.000000000000000 ) ;
#232 = EDGE_LOOP ( 'NONE', ( #227, #239 ) ) ;
#233 = CARTESIAN_POINT ( 'NONE',  ( -9.000000000000000000, 0.000000000000000000, 7.000000000000000000 ) ) ;
#234 = CARTESIAN_POINT ( 'NONE',  ( 0.000000000000000000, 0.000000000000000000, 100.0000000000000000 ) ) ;
#235 = CARTESIAN_POINT ( 'NONE',  ( 6.250000000000000000, 7.654042494670955634E-16, 100.0000000000000000 ) ) ;
#236 = PRODUCT ( '7c9b', '7c9b', '', ( #104 ) ) ;
#237 = APPLICATION_CONTEXT ( 'configuration controlled 3d designs of mechanical parts and assemblies' ) ;
#238 = AXIS2_PLACEMENT_3D ( 'NONE', #234, #215, #58 ) ;
#239 = ORIENTED_EDGE ( 'NONE', *, *, #251, .T. ) ;
#240 = DIRECTION ( 'NONE',  ( 1.000000000000000000, 0.000000000000000000, 0.000000000000000000 ) ) ;
#241 = EDGE_LOOP ( 'NONE', ( #129, #93 ) ) ;
#242 = PERSON_AND_ORGANIZATION ( #121, #196 ) ;
#243 = ADVANCED_FACE ( 'NONE', ( #82 ), #61, .T. ) ;
#244 = CIRCLE ( 'NONE', #133, 9.000000000000000000 ) ;
#245 = CARTESIAN_POINT ( 'NONE',  ( 9.000000000000000000, 1.102182119232617714E-15, 7.000000000000000000 ) ) ;
#246 = LINE ( 'NONE', #233, #92 ) ;
#247 = EDGE_CURVE ( 'NONE', #167, #208, #162, .T. ) ;
#248 = CIRCLE ( 'NONE', #48, 9.000000000000000000 ) ;
#249 = EDGE_LOOP ( 'NONE', ( #56, #50 ) ) ;
#250 = VERTEX_POINT ( 'NONE', #200 ) ;
#251 = EDGE_CURVE ( 'NONE', #188, #88, #149, .T. ) ;
#252 = APPLICATION_PROTOCOL_DEFINITION ( 'international standard', 'config_control_design', 1994, #237 ) ;
#253 = CIRCLE ( 'NONE', #141, 6.250000000000000000 ) ;
#254 = DIRECTION ( 'NONE',  ( -0.000000000000000000, -0.000000000000000000, -1.000000000000000000 ) ) ;
#255 =( GEOMETRIC_REPRESENTATION_CONTEXT ( 3 ) GLOBAL_UNCERTAINTY_ASSIGNED_CONTEXT ( ( #108 ) ) GLOBAL_UNIT_ASSIGNED_CONTEXT ( ( #4, #63, #136 ) ) REPRESENTATION_CONTEXT ( 'NONE', 'WORKASPACE' ) );
ENDSEC;
END-ISO-10303-21;
