ISO-10303-21;
HEADER;
FILE_DESCRIPTION (( 'STEP AP203' ),
    '1' );
FILE_NAME ('d7ec.STEP',
    '2023-02-13T15:44:32',
    ( '' ),
    ( '' ),
    'SwSTEP 2.0',
    'SolidWorks 2019',
    '' );
FILE_SCHEMA (( 'CONFIG_CONTROL_DESIGN' ));
ENDSEC;

DATA;
#1 = ORIENTED_EDGE ( 'NONE', *, *, #103, .F. ) ;
#2 = VECTOR ( 'NONE', #208, 1000.000000000000000 ) ;
#3 = PLANE ( 'NONE',  #193 ) ;
#4 = CARTESIAN_POINT ( 'NONE',  ( 0.000000000000000000, 0.000000000000000000, 5.000000000000000000 ) ) ;
#5 = CARTESIAN_POINT ( 'NONE',  ( 0.000000000000000000, 0.000000000000000000, 5.000000000000000000 ) ) ;
#6 = DIRECTION ( 'NONE',  ( -1.000000000000000000, 0.000000000000000000, 0.000000000000000000 ) ) ;
#7 = DESIGN_CONTEXT ( 'detailed design', #190, 'design' ) ;
#8 = COORDINATED_UNIVERSAL_TIME_OFFSET ( 1, 0, .AHEAD. ) ;
#9 = EDGE_CURVE ( 'NONE', #94, #78, #85, .T. ) ;
#10 = AXIS2_PLACEMENT_3D ( 'NONE', #92, #18, #184 ) ;
#11 = SHAPE_DEFINITION_REPRESENTATION ( #49, #59 ) ;
#12 = CIRCLE ( 'NONE', #169, 6.000000000000000888 ) ;
#13 = ORIENTED_EDGE ( 'NONE', *, *, #124, .F. ) ;
#14 = PERSON_AND_ORGANIZATION_ROLE ( 'design_owner' ) ;
#15 = CARTESIAN_POINT ( 'NONE',  ( 6.000000000000000888, 7.347880794884120722E-16, 0.000000000000000000 ) ) ;
#16 = CIRCLE ( 'NONE', #20, 3.000000000000000444 ) ;
#17 = EDGE_LOOP ( 'NONE', ( #30, #157 ) ) ;
#18 = DIRECTION ( 'NONE',  ( 0.000000000000000000, 0.000000000000000000, 1.000000000000000000 ) ) ;
#19 = CARTESIAN_POINT ( 'NONE',  ( 0.000000000000000000, 0.000000000000000000, 400.0000000000000000 ) ) ;
#20 = AXIS2_PLACEMENT_3D ( 'NONE', #4, #164, #41 ) ;
#21 = DIRECTION ( 'NONE',  ( 1.000000000000000000, 0.000000000000000000, 0.000000000000000000 ) ) ;
#22 = ORIENTED_EDGE ( 'NONE', *, *, #211, .F. ) ;
#23 = DIRECTION ( 'NONE',  ( 1.000000000000000000, 0.000000000000000000, 0.000000000000000000 ) ) ;
#24 = DIRECTION ( 'NONE',  ( 0.000000000000000000, 0.000000000000000000, 1.000000000000000000 ) ) ;
#25 = CYLINDRICAL_SURFACE ( 'NONE', #247, 3.000000000000000444 ) ;
#26 = SECURITY_CLASSIFICATION ( '', '', #113 ) ;
#27 = APPLICATION_CONTEXT ( 'configuration controlled 3d designs of mechanical parts and assemblies' ) ;
#28 = AXIS2_PLACEMENT_3D ( 'NONE', #160, #75, #168 ) ;
#29 = LINE ( 'NONE', #174, #215 ) ;
#30 = ORIENTED_EDGE ( 'NONE', *, *, #90, .T. ) ;
#31 = EDGE_CURVE ( 'NONE', #114, #109, #29, .T. ) ;
#32 = ORIENTED_EDGE ( 'NONE', *, *, #40, .T. ) ;
#33 = MANIFOLD_SOLID_BREP ( 'Pøidat vysunutím3', #66 ) ;
#34 = COORDINATED_UNIVERSAL_TIME_OFFSET ( 1, 0, .AHEAD. ) ;
#35 = CARTESIAN_POINT ( 'NONE',  ( 0.000000000000000000, 0.000000000000000000, 400.0000000000000000 ) ) ;
#36 = CYLINDRICAL_SURFACE ( 'NONE', #172, 6.000000000000000888 ) ;
#37 = EDGE_LOOP ( 'NONE', ( #137, #153 ) ) ;
#38 = DIRECTION ( 'NONE',  ( 0.000000000000000000, 0.000000000000000000, 1.000000000000000000 ) ) ;
#39 = LINE ( 'NONE', #140, #2 ) ;
#40 = EDGE_CURVE ( 'NONE', #94, #196, #242, .T. ) ;
#41 = DIRECTION ( 'NONE',  ( 1.000000000000000000, 0.000000000000000000, 0.000000000000000000 ) ) ;
#42 = DIRECTION ( 'NONE',  ( 0.000000000000000000, 0.000000000000000000, 1.000000000000000000 ) ) ;
#43 = PERSON_AND_ORGANIZATION ( #218, #135 ) ;
#44 = VERTEX_POINT ( 'NONE', #248 ) ;
#45 = AXIS2_PLACEMENT_3D ( 'NONE', #91, #152, #47 ) ;
#46 = CYLINDRICAL_SURFACE ( 'NONE', #206, 3.000000000000000444 ) ;
#47 = DIRECTION ( 'NONE',  ( 1.000000000000000000, 0.000000000000000000, 0.000000000000000000 ) ) ;
#48 = CARTESIAN_POINT ( 'NONE',  ( 0.000000000000000000, 0.000000000000000000, 0.000000000000000000 ) ) ;
#49 = PRODUCT_DEFINITION_SHAPE ( 'NONE', 'NONE',  #73 ) ;
#50 = ADVANCED_FACE ( 'NONE', ( #65 ), #46, .T. ) ;
#51 = EDGE_LOOP ( 'NONE', ( #13, #189, #240, #221 ) ) ;
#52 = ORIENTED_EDGE ( 'NONE', *, *, #139, .T. ) ;
#53 = CARTESIAN_POINT ( 'NONE',  ( 0.000000000000000000, 0.000000000000000000, 5.000000000000000000 ) ) ;
#54 = DIRECTION ( 'NONE',  ( -1.000000000000000000, 0.000000000000000000, 0.000000000000000000 ) ) ;
#55 = CARTESIAN_POINT ( 'NONE',  ( 0.000000000000000000, 0.000000000000000000, 400.0000000000000000 ) ) ;
#56 = PERSON_AND_ORGANIZATION_ROLE ( 'creator' ) ;
#57 = EDGE_CURVE ( 'NONE', #78, #183, #141, .T. ) ;
#58 = EDGE_LOOP ( 'NONE', ( #154, #32 ) ) ;
#59 = ADVANCED_BREP_SHAPE_REPRESENTATION ( 'd7ec', ( #33, #45 ), #64 ) ;
#60 = CARTESIAN_POINT ( 'NONE',  ( -6.000000000000000888, 0.000000000000000000, 5.000000000000000000 ) ) ;
#61 = APPROVAL_ROLE ( '' ) ;
#62 = APPROVAL_STATUS ( 'not_yet_approved' ) ;
#63 = DATE_AND_TIME ( #136, #79 ) ;
#64 =( GEOMETRIC_REPRESENTATION_CONTEXT ( 3 ) GLOBAL_UNCERTAINTY_ASSIGNED_CONTEXT ( ( #231 ) ) GLOBAL_UNIT_ASSIGNED_CONTEXT ( ( #171, #97, #111 ) ) REPRESENTATION_CONTEXT ( 'NONE', 'WORKASPACE' ) );
#65 = FACE_OUTER_BOUND ( 'NONE', #51, .T. ) ;
#66 = CLOSED_SHELL ( 'NONE', ( #163, #129, #191, #229, #252, #50, #86 ) ) ;
#67 = CARTESIAN_POINT ( 'NONE',  ( 0.000000000000000000, 0.000000000000000000, 400.0000000000000000 ) ) ;
#68 = FACE_BOUND ( 'NONE', #37, .T. ) ;
#69 = ORIENTED_EDGE ( 'NONE', *, *, #40, .F. ) ;
#70 = AXIS2_PLACEMENT_3D ( 'NONE', #53, #170, #80 ) ;
#71 = PERSON_AND_ORGANIZATION ( #218, #135 ) ;
#72 = ORIENTED_EDGE ( 'NONE', *, *, #211, .T. ) ;
#73 = PRODUCT_DEFINITION ( 'NEZNÁMÝ', '', #250, #7 ) ;
#74 = LINE ( 'NONE', #192, #126 ) ;
#75 = DIRECTION ( 'NONE',  ( 0.000000000000000000, 0.000000000000000000, 1.000000000000000000 ) ) ;
#76 = FACE_OUTER_BOUND ( 'NONE', #205, .T. ) ;
#77 = ORIENTED_EDGE ( 'NONE', *, *, #124, .T. ) ;
#78 = VERTEX_POINT ( 'NONE', #15 ) ;
#79 = LOCAL_TIME ( 16, 44, 32.00000000000000000, #178 ) ;
#80 = DIRECTION ( 'NONE',  ( -1.000000000000000000, 0.000000000000000000, 0.000000000000000000 ) ) ;
#81 = CIRCLE ( 'NONE', #116, 6.000000000000000888 ) ;
#82 = CC_DESIGN_DATE_AND_TIME_ASSIGNMENT ( #216, #202, ( #73 ) ) ;
#83 = CARTESIAN_POINT ( 'NONE',  ( 6.000000000000000888, 7.347880794884120722E-16, 5.000000000000000000 ) ) ;
#84 = PERSON_AND_ORGANIZATION ( #218, #135 ) ;
#85 = LINE ( 'NONE', #83, #96 ) ;
#86 = ADVANCED_FACE ( 'NONE', ( #158 ), #217, .T. ) ;
#87 = PERSON_AND_ORGANIZATION ( #218, #135 ) ;
#88 = DIRECTION ( 'NONE',  ( 1.000000000000000000, 0.000000000000000000, 0.000000000000000000 ) ) ;
#89 = CALENDAR_DATE ( 2023, 13, 2 ) ;
#90 = EDGE_CURVE ( 'NONE', #114, #44, #232, .T. ) ;
#91 = CARTESIAN_POINT ( 'NONE',  ( 0.000000000000000000, 0.000000000000000000, 0.000000000000000000 ) ) ;
#92 = CARTESIAN_POINT ( 'NONE',  ( 0.000000000000000000, 0.000000000000000000, 400.0000000000000000 ) ) ;
#93 = APPLICATION_PROTOCOL_DEFINITION ( 'international standard', 'config_control_design', 1994, #190 ) ;
#94 = VERTEX_POINT ( 'NONE', #101 ) ;
#95 = PERSON_AND_ORGANIZATION_ROLE ( 'design_supplier' ) ;
#96 = VECTOR ( 'NONE', #244, 1000.000000000000000 ) ;
#97 =( NAMED_UNIT ( * ) PLANE_ANGLE_UNIT ( ) SI_UNIT ( $, .RADIAN. ) );
#98 = CYLINDRICAL_SURFACE ( 'NONE', #70, 6.000000000000000888 ) ;
#99 = FACE_OUTER_BOUND ( 'NONE', #249, .T. ) ;
#100 = EDGE_CURVE ( 'NONE', #44, #114, #121, .T. ) ;
#101 = CARTESIAN_POINT ( 'NONE',  ( 6.000000000000000888, 7.347880794884120722E-16, 5.000000000000000000 ) ) ;
#102 = FACE_OUTER_BOUND ( 'NONE', #167, .T. ) ;
#103 = EDGE_CURVE ( 'NONE', #196, #183, #74, .T. ) ;
#104 = APPROVAL_PERSON_ORGANIZATION ( #225, #241, #61 ) ;
#105 = DATE_AND_TIME ( #182, #230 ) ;
#106 = LOCAL_TIME ( 16, 44, 32.00000000000000000, #210 ) ;
#107 = APPROVAL_DATE_TIME ( #63, #175 ) ;
#108 = DIRECTION ( 'NONE',  ( 0.000000000000000000, 0.000000000000000000, 1.000000000000000000 ) ) ;
#109 = VERTEX_POINT ( 'NONE', #166 ) ;
#110 = APPROVAL_ROLE ( '' ) ;
#111 =( NAMED_UNIT ( * ) SI_UNIT ( $, .STERADIAN. ) SOLID_ANGLE_UNIT ( ) );
#112 = CC_DESIGN_APPROVAL ( #241, ( #26 ) ) ;
#113 = SECURITY_CLASSIFICATION_LEVEL ( 'unclassified' ) ;
#114 = VERTEX_POINT ( 'NONE', #226 ) ;
#115 = CARTESIAN_POINT ( 'NONE',  ( 3.000000000000000444, 3.673940397442059868E-16, 5.000000000000000000 ) ) ;
#116 = AXIS2_PLACEMENT_3D ( 'NONE', #5, #38, #23 ) ;
#117 = DIRECTION ( 'NONE',  ( -1.000000000000000000, 0.000000000000000000, 0.000000000000000000 ) ) ;
#118 = PRODUCT ( 'd7ec', 'd7ec', '', ( #214 ) ) ;
#119 = DIRECTION ( 'NONE',  ( -0.000000000000000000, -0.000000000000000000, -1.000000000000000000 ) ) ;
#120 = PRODUCT_RELATED_PRODUCT_CATEGORY ( 'detail', '', ( #118 ) ) ;
#121 = CIRCLE ( 'NONE', #212, 3.000000000000000444 ) ;
#122 = CARTESIAN_POINT ( 'NONE',  ( -6.000000000000000888, 0.000000000000000000, 0.000000000000000000 ) ) ;
#123 = AXIS2_PLACEMENT_3D ( 'NONE', #254, #222, #185 ) ;
#124 = EDGE_CURVE ( 'NONE', #44, #234, #39, .T. ) ;
#125 = PERSON_AND_ORGANIZATION ( #218, #135 ) ;
#126 = VECTOR ( 'NONE', #119, 1000.000000000000000 ) ;
#127 = DATE_AND_TIME ( #89, #143 ) ;
#128 = LOCAL_TIME ( 16, 44, 32.00000000000000000, #34 ) ;
#129 = ADVANCED_FACE ( 'NONE', ( #188 ), #98, .T. ) ;
#130 = AXIS2_PLACEMENT_3D ( 'NONE', #245, #108, #88 ) ;
#131 = CALENDAR_DATE ( 2023, 13, 2 ) ;
#132 = DIRECTION ( 'NONE',  ( 0.000000000000000000, 0.000000000000000000, 1.000000000000000000 ) ) ;
#133 = PERSON_AND_ORGANIZATION_ROLE ( 'creator' ) ;
#134 = ORIENTED_EDGE ( 'NONE', *, *, #236, .F. ) ;
#135 = ORGANIZATION ( 'NEURÈENÝ', 'NEURÈENÝ', '' ) ;
#136 = CALENDAR_DATE ( 2023, 13, 2 ) ;
#137 = ORIENTED_EDGE ( 'NONE', *, *, #177, .F. ) ;
#138 = CC_DESIGN_PERSON_AND_ORGANIZATION_ASSIGNMENT ( #198, #95, ( #250 ) ) ;
#139 = EDGE_CURVE ( 'NONE', #234, #109, #197, .T. ) ;
#140 = CARTESIAN_POINT ( 'NONE',  ( 3.000000000000000444, 3.673940397442059868E-16, 400.0000000000000000 ) ) ;
#141 = CIRCLE ( 'NONE', #123, 6.000000000000000888 ) ;
#142 = DIRECTION ( 'NONE',  ( -0.000000000000000000, -0.000000000000000000, -1.000000000000000000 ) ) ;
#143 = LOCAL_TIME ( 16, 44, 32.00000000000000000, #8 ) ;
#144 = CARTESIAN_POINT ( 'NONE',  ( 0.000000000000000000, 0.000000000000000000, 5.000000000000000000 ) ) ;
#145 = CC_DESIGN_PERSON_AND_ORGANIZATION_ASSIGNMENT ( #71, #161, ( #26 ) ) ;
#146 = DIRECTION ( 'NONE',  ( 0.000000000000000000, 0.000000000000000000, 1.000000000000000000 ) ) ;
#147 = APPROVAL_DATE_TIME ( #127, #155 ) ;
#148 = APPROVAL_STATUS ( 'not_yet_approved' ) ;
#149 = CARTESIAN_POINT ( 'NONE',  ( 0.000000000000000000, 0.000000000000000000, 0.000000000000000000 ) ) ;
#150 = APPROVAL_ROLE ( '' ) ;
#151 = CALENDAR_DATE ( 2023, 13, 2 ) ;
#152 = DIRECTION ( 'NONE',  ( 0.000000000000000000, 0.000000000000000000, 1.000000000000000000 ) ) ;
#153 = ORIENTED_EDGE ( 'NONE', *, *, #139, .F. ) ;
#154 = ORIENTED_EDGE ( 'NONE', *, *, #236, .T. ) ;
#155 = APPROVAL ( #62, 'NEURÈENÝ' ) ;
#156 = DIRECTION ( 'NONE',  ( -0.000000000000000000, -0.000000000000000000, -1.000000000000000000 ) ) ;
#157 = ORIENTED_EDGE ( 'NONE', *, *, #100, .T. ) ;
#158 = FACE_OUTER_BOUND ( 'NONE', #17, .T. ) ;
#159 = APPROVAL_DATE_TIME ( #105, #241 ) ;
#160 = CARTESIAN_POINT ( 'NONE',  ( 0.000000000000000000, 0.000000000000000000, 5.000000000000000000 ) ) ;
#161 = PERSON_AND_ORGANIZATION_ROLE ( 'classification_officer' ) ;
#162 = CC_DESIGN_PERSON_AND_ORGANIZATION_ASSIGNMENT ( #87, #133, ( #250 ) ) ;
#163 = ADVANCED_FACE ( 'NONE', ( #76 ), #25, .T. ) ;
#164 = DIRECTION ( 'NONE',  ( 0.000000000000000000, 0.000000000000000000, 1.000000000000000000 ) ) ;
#165 = DATE_TIME_ROLE ( 'classification_date' ) ;
#166 = CARTESIAN_POINT ( 'NONE',  ( -3.000000000000000444, 0.000000000000000000, 5.000000000000000000 ) ) ;
#167 = EDGE_LOOP ( 'NONE', ( #176, #134, #203, #72 ) ) ;
#168 = DIRECTION ( 'NONE',  ( 1.000000000000000000, 0.000000000000000000, -0.000000000000000000 ) ) ;
#169 = AXIS2_PLACEMENT_3D ( 'NONE', #48, #132, #220 ) ;
#170 = DIRECTION ( 'NONE',  ( -0.000000000000000000, -0.000000000000000000, -1.000000000000000000 ) ) ;
#171 =( LENGTH_UNIT ( ) NAMED_UNIT ( * ) SI_UNIT ( .MILLI., .METRE. ) );
#172 = AXIS2_PLACEMENT_3D ( 'NONE', #194, #255, #6 ) ;
#173 = DIRECTION ( 'NONE',  ( 1.000000000000000000, 0.000000000000000000, -0.000000000000000000 ) ) ;
#174 = CARTESIAN_POINT ( 'NONE',  ( -3.000000000000000444, 0.000000000000000000, 400.0000000000000000 ) ) ;
#175 = APPROVAL ( #228, 'NEURÈENÝ' ) ;
#176 = ORIENTED_EDGE ( 'NONE', *, *, #9, .F. ) ;
#177 = EDGE_CURVE ( 'NONE', #109, #234, #16, .T. ) ;
#178 = COORDINATED_UNIVERSAL_TIME_OFFSET ( 1, 0, .AHEAD. ) ;
#179 = PLANE ( 'NONE',  #28 ) ;
#180 = EDGE_LOOP ( 'NONE', ( #69, #199, #204, #1 ) ) ;
#181 = CC_DESIGN_APPROVAL ( #175, ( #250 ) ) ;
#182 = CALENDAR_DATE ( 2023, 13, 2 ) ;
#183 = VERTEX_POINT ( 'NONE', #122 ) ;
#184 = DIRECTION ( 'NONE',  ( 1.000000000000000000, 0.000000000000000000, 0.000000000000000000 ) ) ;
#185 = DIRECTION ( 'NONE',  ( 1.000000000000000000, 0.000000000000000000, 0.000000000000000000 ) ) ;
#186 = DIRECTION ( 'NONE',  ( 1.000000000000000000, 0.000000000000000000, -0.000000000000000000 ) ) ;
#187 = CC_DESIGN_PERSON_AND_ORGANIZATION_ASSIGNMENT ( #125, #56, ( #73 ) ) ;
#188 = FACE_OUTER_BOUND ( 'NONE', #180, .T. ) ;
#189 = ORIENTED_EDGE ( 'NONE', *, *, #90, .F. ) ;
#190 = APPLICATION_CONTEXT ( 'configuration controlled 3d designs of mechanical parts and assemblies' ) ;
#191 = ADVANCED_FACE ( 'NONE', ( #102 ), #36, .T. ) ;
#192 = CARTESIAN_POINT ( 'NONE',  ( -6.000000000000000888, 0.000000000000000000, 5.000000000000000000 ) ) ;
#193 = AXIS2_PLACEMENT_3D ( 'NONE', #149, #42, #173 ) ;
#194 = CARTESIAN_POINT ( 'NONE',  ( 0.000000000000000000, 0.000000000000000000, 5.000000000000000000 ) ) ;
#195 = APPROVAL_PERSON_ORGANIZATION ( #84, #155, #150 ) ;
#196 = VERTEX_POINT ( 'NONE', #60 ) ;
#197 = CIRCLE ( 'NONE', #227, 3.000000000000000444 ) ;
#198 = PERSON_AND_ORGANIZATION ( #218, #135 ) ;
#199 = ORIENTED_EDGE ( 'NONE', *, *, #9, .T. ) ;
#200 = PERSON_AND_ORGANIZATION ( #218, #135 ) ;
#201 = FACE_OUTER_BOUND ( 'NONE', #58, .T. ) ;
#202 = DATE_TIME_ROLE ( 'creation_date' ) ;
#203 = ORIENTED_EDGE ( 'NONE', *, *, #103, .T. ) ;
#204 = ORIENTED_EDGE ( 'NONE', *, *, #57, .T. ) ;
#205 = EDGE_LOOP ( 'NONE', ( #238, #77, #52, #246 ) ) ;
#206 = AXIS2_PLACEMENT_3D ( 'NONE', #19, #251, #54 ) ;
#207 = CC_DESIGN_DATE_AND_TIME_ASSIGNMENT ( #213, #165, ( #26 ) ) ;
#208 = DIRECTION ( 'NONE',  ( -0.000000000000000000, -0.000000000000000000, -1.000000000000000000 ) ) ;
#209 = CC_DESIGN_SECURITY_CLASSIFICATION ( #26, ( #250 ) ) ;
#210 = COORDINATED_UNIVERSAL_TIME_OFFSET ( 1, 0, .AHEAD. ) ;
#211 = EDGE_CURVE ( 'NONE', #183, #78, #12, .T. ) ;
#212 = AXIS2_PLACEMENT_3D ( 'NONE', #55, #146, #21 ) ;
#213 = DATE_AND_TIME ( #151, #128 ) ;
#214 = MECHANICAL_CONTEXT ( 'NONE', #27, 'mechanical' ) ;
#215 = VECTOR ( 'NONE', #156, 1000.000000000000000 ) ;
#216 = DATE_AND_TIME ( #131, #106 ) ;
#217 = PLANE ( 'NONE',  #239 ) ;
#218 = PERSON ( 'NEURÈENÝ', 'NEURÈENÝ', 'NEURÈENÝ', ('NEURÈENÝ'), ('NEURÈENÝ'), ('NEURÈENÝ') ) ;
#219 = APPROVAL_PERSON_ORGANIZATION ( #43, #175, #110 ) ;
#220 = DIRECTION ( 'NONE',  ( 1.000000000000000000, 0.000000000000000000, 0.000000000000000000 ) ) ;
#221 = ORIENTED_EDGE ( 'NONE', *, *, #177, .T. ) ;
#222 = DIRECTION ( 'NONE',  ( 0.000000000000000000, 0.000000000000000000, 1.000000000000000000 ) ) ;
#223 = DIRECTION ( 'NONE',  ( 1.000000000000000000, 0.000000000000000000, 0.000000000000000000 ) ) ;
#224 = CC_DESIGN_APPROVAL ( #155, ( #73 ) ) ;
#225 = PERSON_AND_ORGANIZATION ( #218, #135 ) ;
#226 = CARTESIAN_POINT ( 'NONE',  ( -3.000000000000000444, 0.000000000000000000, 400.0000000000000000 ) ) ;
#227 = AXIS2_PLACEMENT_3D ( 'NONE', #144, #24, #223 ) ;
#228 = APPROVAL_STATUS ( 'not_yet_approved' ) ;
#229 = ADVANCED_FACE ( 'NONE', ( #68, #201 ), #179, .T. ) ;
#230 = LOCAL_TIME ( 16, 44, 32.00000000000000000, #235 ) ;
#231 = UNCERTAINTY_MEASURE_WITH_UNIT (LENGTH_MEASURE( 1.000000000000000082E-05 ), #171, 'distance_accuracy_value', 'NONE');
#232 = CIRCLE ( 'NONE', #10, 3.000000000000000444 ) ;
#233 = APPLICATION_PROTOCOL_DEFINITION ( 'international standard', 'config_control_design', 1994, #27 ) ;
#234 = VERTEX_POINT ( 'NONE', #115 ) ;
#235 = COORDINATED_UNIVERSAL_TIME_OFFSET ( 1, 0, .AHEAD. ) ;
#236 = EDGE_CURVE ( 'NONE', #196, #94, #81, .T. ) ;
#237 = DIRECTION ( 'NONE',  ( 0.000000000000000000, 0.000000000000000000, 1.000000000000000000 ) ) ;
#238 = ORIENTED_EDGE ( 'NONE', *, *, #100, .F. ) ;
#239 = AXIS2_PLACEMENT_3D ( 'NONE', #67, #237, #186 ) ;
#240 = ORIENTED_EDGE ( 'NONE', *, *, #31, .T. ) ;
#241 = APPROVAL ( #148, 'NEURÈENÝ' ) ;
#242 = CIRCLE ( 'NONE', #130, 6.000000000000000888 ) ;
#243 = CC_DESIGN_PERSON_AND_ORGANIZATION_ASSIGNMENT ( #200, #14, ( #118 ) ) ;
#244 = DIRECTION ( 'NONE',  ( -0.000000000000000000, -0.000000000000000000, -1.000000000000000000 ) ) ;
#245 = CARTESIAN_POINT ( 'NONE',  ( 0.000000000000000000, 0.000000000000000000, 5.000000000000000000 ) ) ;
#246 = ORIENTED_EDGE ( 'NONE', *, *, #31, .F. ) ;
#247 = AXIS2_PLACEMENT_3D ( 'NONE', #35, #142, #117 ) ;
#248 = CARTESIAN_POINT ( 'NONE',  ( 3.000000000000000444, 3.673940397442059868E-16, 400.0000000000000000 ) ) ;
#249 = EDGE_LOOP ( 'NONE', ( #22, #253 ) ) ;
#250 = PRODUCT_DEFINITION_FORMATION_WITH_SPECIFIED_SOURCE ( 'LIBOVOLNÝ', '', #118, .NOT_KNOWN. ) ;
#251 = DIRECTION ( 'NONE',  ( -0.000000000000000000, -0.000000000000000000, -1.000000000000000000 ) ) ;
#252 = ADVANCED_FACE ( 'NONE', ( #99 ), #3, .F. ) ;
#253 = ORIENTED_EDGE ( 'NONE', *, *, #57, .F. ) ;
#254 = CARTESIAN_POINT ( 'NONE',  ( 0.000000000000000000, 0.000000000000000000, 0.000000000000000000 ) ) ;
#255 = DIRECTION ( 'NONE',  ( -0.000000000000000000, -0.000000000000000000, -1.000000000000000000 ) ) ;
ENDSEC;
END-ISO-10303-21;
